  0
SECTION
  2
HEADER
  9
$ACADVER
  1
AC1009
  9
$INSBASE
 10
0
 20
0
 30
0
  9
$EXTMIN
 10
0
 20
0
  9
$EXTMAX
 10
42000
 20
29700
  9
$LIMMIN
 10
0
 20
0
  9
$LIMMAX
 10
42000
 20
29700
  9
$LTSCALE
 40
100
  0
ENDSEC
  0
SECTION
  2
TABLES
  0
TABLE
  2
LTYPE
 70
     9
  0
LTYPE
  2
CONTINUOUS
 70
    64
  3
実線
 72
    65
 73
     0
 40
0.0
  0
LTYPE
  2
DASHED1
 70
    64
  3
--  --  --  --  --  --  --  --  
 72
    65
 73
     2
 40
2.5
 49
1.25
 49
-1.25
  0
LTYPE
  2
DASHED2
 70
    64
  3
----    ----    ----    ----    
 72
    65
 73
     2
 40
5.0
 49
2.5
 49
-2.5
  0
LTYPE
  2
DASHED3
 70
    64
  3
------  ------  ------  ------  
 72
    65
 73
     2
 40
5.0
 49
3.75
 49
-1.25
  0
LTYPE
  2
CENTER1
 70
    64
  3
----- - ----- - ----- - ----- - 
 72
    65
 73
     4
 40
10.0
 49
6.25
 49
-1.25
 49
1.25
 49
-1.25
  0
LTYPE
  2
CENTER2
 70
    64
  3
----------  --  ----------  --  
 72
    65
 73
     4
 40
20.0
 49
12.5
 49
-2.5
 49
2.5
 49
-2.5
  0
LTYPE
  2
PHANTOM1
 70
    64
  3
--- - - --- - - --- - - --- - - 
 72
    65
 73
     6
 40
10.0
 49
3.25
 49
-1.25
 49
1.25
 49
-1.25
 49
1.25
 49
-1.25
  0
LTYPE
  2
PHANTOM2
 70
    64
  3
--------  -  -  --------  -  -  
 72
    65
 73
     6
 40
20.0
 49
10.0
 49
-2.5
 49
1.25
 49
-2.5
 49
1.25
 49
-2.5
  0
LTYPE
  2
DOT
 70
    64
  3
-   -   -   -   -   -   -   -   
 72
    65
 73
     2
 40
2.5
 49
0.625
 49
-1.875
  0
LTYPE
  2
DUMMY
 70
    64
  3
ダミー
 72
    65
 73
     0
 40
0.0
  0
LTYPE
  2
RAND1
 70
    64
  3
ランダム線1
 72
    65
 73
     4
 40
10.0
 49
1.0
 49
-2.0
 49
3.0
 49
-4.0
  0
LTYPE
  2
RAND2
 70
    64
  3
ランダム線2
 72
    65
 73
     4
 40
14.0
 49
2.0
 49
-3.0
 49
4.0
 49
-5.0
  0
LTYPE
  2
RAND3
 70
    64
  3
ランダム線3
 72
    65
 73
     4
 40
18.0
 49
3.0
 49
-4.0
 49
5.0
 49
-6.0
  0
LTYPE
  2
RAND4
 70
    64
  3
ランダム線4
 72
    65
 73
     4
 40
22.0
 49
4.0
 49
-5.0
 49
6.0
 49
-7.0
  0
LTYPE
  2
RAND5
 70
    64
  3
ランダム線5
 72
    65
 73
     4
 40
26.0
 49
5.0
 49
-6.0
 49
7.0
 49
-8.0
  0
LTYPE
  2
LONG1
 70
    64
  3
----------  --  ----------  --  
 72
    65
 73
     4
 40
40.0
 49
32.5
 49
-2.5
 49
2.5
 49
-2.5
  0
LTYPE
  2
LONG2
 70
    64
  3
--------  -  -  --------  -  -  
 72
    65
 73
     6
 40
40.0
 49
30.0
 49
-2.5
 49
1.25
 49
-2.5
 49
1.25
 49
-2.5
  0
LTYPE
  2
LONG3
 70
    64
  3
+++++++++++++++..+++++++++++++++
 72
    65
 73
     2
 40
40.0
 49
37.5
 49
-2.5
  0
LTYPE
  2
LONG4
 70
    64
  3
+++++++++++++++..+++++++++++++++
 72
    65
 73
     2
 40
80.0
 49
75.0
 49
-5.0
  0
LTYPE
  2
LONG5
 70
    64
  3
----------  --  ----------  --  
 72
    65
 73
     4
 40
60.0
 49
37.5
 49
-7.5
 49
7.5
 49
-7.5
  0
LTYPE
  2
dashed
 70
   64
  3
-------   -------------   ------
 72
   65
 73
    2
 40
7.5
 49
6
 49
-1.5
  0
LTYPE
  2
dashed_spaced
 70
   64
  3
----        --------        ----
 72
   65
 73
    2
 40
12
 49
6
 49
-6
  0
LTYPE
  2
long_dashed_dotted
 70
   64
  3
------------- --- --------------
 72
   65
 73
    4
 40
15.25
 49
12
 49
-1.5
 49
0.25
 49
-1.5
  0
LTYPE
  2
long_dashed_double-dotted
 70
   64
  3
----------- --- --- ------------
 72
   65
 73
    6
 40
17
 49
12
 49
-1.5
 49
0.25
 49
-1.5
 49
0.25
 49
-1.5
  0
LTYPE
  2
long_dashed_triplicate-dotted
 70
   64
  3
--------- --- --- --- ----------
 72
   65
 73
    8
 40
18.75
 49
12
 49
-1.5
 49
0.25
 49
-1.5
 49
0.25
 49
-1.5
 49
0.25
 49
-1.5
  0
LTYPE
  2
dotted
 70
   64
  3
   -       -       -       -    
 72
   65
 73
    2
 40
1.75
 49
0.25
 49
-1.5
  0
LTYPE
  2
chain
 70
   64
  3
-------------- -- --------------
 72
   65
 73
    4
 40
18.5
 49
12
 49
-1.5
 49
3.5
 49
-1.5
  0
LTYPE
  2
chain_double_dash
 70
   64
  3
------------ -- -- -------------
 72
   65
 73
    6
 40
23.5
 49
12
 49
-1.5
 49
3.5
 49
-1.5
 49
3.5
 49
-1.5
  0
LTYPE
  2
dashed_dotted
 70
   64
  3
-----------     -     ----------
 72
   65
 73
    4
 40
9.25
 49
6
 49
-1.5
 49
0.25
 49
-1.5
  0
LTYPE
  2
double-dashed_dotted
 70
   64
  3
------   -----------   -   -----
 72
   65
 73
    6
 40
16.75
 49
6
 49
-1.5
 49
6
 49
-1.5
 49
0.25
 49
-1.5
  0
LTYPE
  2
dashed_double-dotted
 70
   64
  3
---------    -    -    ---------
 72
   65
 73
    6
 40
11
 49
6
 49
-1.5
 49
0.25
 49
-1.5
 49
0.25
 49
-1.5
  0
LTYPE
  2
double-dashed_double-dotted
 70
   64
  3
-----   ---------   -   -   ----
 72
   65
 73
    8
 40
18.5
 49
6
 49
-1.5
 49
6
 49
-1.5
 49
0.25
 49
-1.5
 49
0.25
 49
-1.5
  0
LTYPE
  2
dashed_triplicate-dotted
 70
   64
  3
-------    -    -    -    ------
 72
   65
 73
    8
 40
12.75
 49
6
 49
-1.5
 49
0.25
 49
-1.5
 49
0.25
 49
-1.5
 49
0.25
 49
-1.5
  0
LTYPE
  2
double-dashed_triplicate-dotted
 70
   64
  3
-----  ---------  -  -  -  -----
 72
   65
 73
   10
 40
20.25
 49
6
 49
-1.5
 49
6
 49
-1.5
 49
0.25
 49
-1.5
 49
0.25
 49
-1.5
 49
0.25
 49
-1.5
  0
LTYPE
  2
undefined
 70
   64
  3
--------------------------------
 72
   65
 73
    0
 40
0
  0
ENDTAB
  0
TABLE
  2
STYLE
  5
3
100
AcDbSymbolTable
 70
     1
  0
STYLE
  5
10
100
AcDbSymbolTableRecord
100
AcDbTextStyleTableRecord
  2
STANDARD
 70
     0
 40
0.0
 41
1.0
 50
0.0
 71
     0
 42
0.2
  3
txt
  4
bigfont.shx
  0
STYLE
  5
26
100
AcDbSymbolTableRecord
100
AcDbTextStyleTableRecord
  2
TATEGAKI
 70
    68
 40
0.0
 41
1.0
 50
0.0
 71
     0
 42
1.0
  3
txt
  4
bigfont.shx
  0
ENDTAB
  0
TABLE
  2
LAYER
 70
    8
  0
LAYER
  2
_0-0_
 70
   64
 62
    7
  6
CONTINUOUS
  0
LAYER
  2
_0-1_
 70
   64
 62
    7
  6
CONTINUOUS
  0
LAYER
  2
_0-2_
 70
   64
 62
    7
  6
CONTINUOUS
  0
LAYER
  2
_0-3_
 70
   64
 62
    7
  6
CONTINUOUS
  0
LAYER
  2
_0-4_
 70
   64
 62
    7
  6
CONTINUOUS
  0
LAYER
  2
_0-5_
 70
   64
 62
    7
  6
CONTINUOUS
  0
LAYER
  2
_1-5_
 70
   64
 62
    7
  6
CONTINUOUS
  0
LAYER
  2
ADD_LINE
 70
   64
 62
    7
  6
CONTINUOUS
  0
ENDTAB
  0
ENDSEC
  0
SECTION
  2
BLOCKS
  0
ENDSEC
  0
SECTION
  2
ENTITIES
  0
LINE
  8
_0-4_
  6
CONTINUOUS
 62
    3
 10
0
 20
19700
 11
0
 21
29700
  0
LINE
  8
_0-4_
  6
CONTINUOUS
 62
    3
 10
0
 20
19700
 11
8000
 21
19700
  0
LINE
  8
_0-4_
  6
CONTINUOUS
 62
    3
 10
0
 20
29700
 11
8000
 21
29700
  0
LINE
  8
_0-4_
  6
CONTINUOUS
 62
    3
 10
8000
 20
19700
 11
8000
 21
29700
  0
LINE
  8
_0-1_
  6
CONTINUOUS
 62
    4
 10
2950
 20
23934.651634601407
 11
5050
 21
23934.651634601407
  0
LINE
  8
_0-1_
  6
CONTINUOUS
 62
    4
 10
5050
 20
23934.651634601407
 11
5050
 21
26034.651634601407
  0
LINE
  8
_0-1_
  6
CONTINUOUS
 62
    4
 10
5050
 20
26034.651634601407
 11
2950
 21
26034.651634601407
  0
LINE
  8
_0-1_
  6
CONTINUOUS
 62
    4
 10
2950
 20
26034.651634601407
 11
2950
 21
23934.651634601407
  0
LINE
  8
_0-1_
  6
CONTINUOUS
 62
    4
 10
2950
 20
23934.651634601407
 11
5050
 21
26034.651634601407
  0
LINE
  8
_0-1_
  6
CONTINUOUS
 62
    4
 10
5050
 20
23934.651634601407
 11
2950
 21
26034.651634601407
  0
LINE
  8
_0-1_
  6
CONTINUOUS
 62
    4
 10
2800
 20
23534.651634601407
 11
5200
 21
23534.651634601407
  0
LINE
  8
_0-3_
  6
CONTINUOUS
 62
    2
 10
5750
 20
24231.986300162622
 11
5669.9999999999991
 21
24151.986300162622
  0
LINE
  8
_0-3_
  6
CONTINUOUS
 62
    2
 10
5669.9999999999991
 20
24151.986300162622
 11
5430.0000000000009
 21
24151.986300162622
  0
LINE
  8
_0-4_
  6
CONTINUOUS
 62
    3
 10
5069.9999999999991
 20
23934.651634601407
 11
5069.9999999999991
 21
25134.651634601407
  0
LINE
  8
_0-4_
  6
CONTINUOUS
 62
    3
 10
5869.9999999999991
 20
23834.651634601407
 11
5069.9999999999991
 21
23934.651634601407
  0
LINE
  8
_0-4_
  6
CONTINUOUS
 62
    3
 10
5869.9999999999991
 20
23834.651634601407
 11
5869.9999999999991
 21
23234.651634601407
  0
LINE
  8
_0-4_
  6
CONTINUOUS
 62
    3
 10
5869.9999999999991
 20
23234.651634601407
 11
5219.9999999999991
 21
23234.651634601407
  0
LINE
  8
_0-4_
  6
CONTINUOUS
 62
    3
 10
5219.9999999999991
 20
23234.651634601407
 11
5219.9999999999991
 21
23254.65163460141
  0
LINE
  8
_0-4_
  6
CONTINUOUS
 62
    3
 10
5219.9999999999991
 20
23254.65163460141
 11
5319.9999999999991
 21
23254.65163460141
  0
LINE
  8
_0-4_
  6
CONTINUOUS
 62
    3
 10
5069.9999999999991
 20
25134.651634601407
 11
5050
 21
25134.651634601407
  0
LINE
  8
_0-4_
  6
CONTINUOUS
 62
    3
 10
5050
 20
25134.651634601407
 11
5050
 21
25034.651634601407
  0
LINE
  8
_0-5_
  6
CONTINUOUS
 62
    7
 10
5109.9999999999991
 20
25074.864145103958
 11
5109.9999999999991
 21
24374.864145103958
  0
LINE
  8
_0-5_
  6
CONTINUOUS
 62
    7
 10
5109.9999999999991
 20
24374.864145103958
 11
5169.9999999999991
 21
24374.864145103958
  0
LINE
  8
_0-5_
  6
CONTINUOUS
 62
    7
 10
5169.9999999999991
 20
24374.864145103958
 11
5169.9999999999991
 21
25074.864145103958
  0
LINE
  8
_0-5_
  6
CONTINUOUS
 62
    7
 10
5169.9999999999991
 20
25074.864145103958
 11
5109.9999999999991
 21
25074.864145103958
  0
LINE
  8
_0-5_
  6
DASHED1
 62
    4
 10
5236.6666666666679
 20
24374.864145103958
 11
5236.6666666666679
 21
24774.864145103958
  0
LINE
  8
_0-5_
  6
DASHED1
 62
    4
 10
5303.333333333333
 20
24374.864145103958
 11
5303.333333333333
 21
24774.864145103958
  0
LINE
  8
_0-5_
  6
DASHED1
 62
    4
 10
5369.9999999999991
 20
24374.864145103958
 11
5369.9999999999991
 21
24774.864145103958
  0
LINE
  8
_0-5_
  6
DASHED1
 62
    4
 10
5169.9999999999991
 20
24374.864145103958
 11
5430.0000000000009
 21
24374.864145103958
  0
LINE
  8
_0-5_
  6
DASHED1
 62
    4
 10
5169.9999999999991
 20
24774.864145103958
 11
5430.0000000000009
 21
24774.864145103958
  0
LINE
  8
_0-5_
  6
DASHED1
 62
    4
 10
5430.0000000000009
 20
24774.864145103958
 11
5430.0000000000009
 21
24374.864145103958
  0
LINE
  8
_0-1_
  6
CONTINUOUS
 62
    4
 10
2800
 20
23534.651634601407
 11
2800
 21
19700
  0
LINE
  8
_0-1_
  6
CONTINUOUS
 62
    4
 10
5200
 20
23534.651634601407
 11
5200
 21
19700
  0
LINE
  8
_0-1_
  6
CONTINUOUS
 62
    4
 10
3842.3036275686286
 20
19700
 11
5200
 21
21057.696372431368
  0
LINE
  8
_0-1_
  6
CONTINUOUS
 62
    4
 10
3700.8822713313207
 20
19700
 11
5200.0000000000027
 21
21199.117728668672
  0
LINE
  8
_0-1_
  6
CONTINUOUS
 62
    4
 10
3559.4609150940073
 20
19700
 11
5200
 21
21340.539084905991
  0
LINE
  8
_0-1_
  6
CONTINUOUS
 62
    4
 10
2800
 20
20496.174003516397
 11
5200
 21
22896.174003516397
  0
LINE
  8
_0-1_
  6
CONTINUOUS
 62
    4
 10
2800
 20
20637.595359753701
 11
5200
 21
23037.595359753701
  0
LINE
  8
_0-1_
  6
CONTINUOUS
 62
    4
 10
2800
 20
20779.01671599102
 11
5200
 21
23179.01671599102
  0
LINE
  8
_0-1_
  6
CONTINUOUS
 62
    4
 10
2800
 20
22334.651634601407
 11
4000
 21
23534.651634601407
  0
LINE
  8
_0-1_
  6
CONTINUOUS
 62
    4
 10
2800
 20
22476.072990838729
 11
3858.5786437626894
 21
23534.651634601407
  0
LINE
  8
_0-1_
  6
CONTINUOUS
 62
    4
 10
2800
 20
22617.494347076034
 11
3717.1572875253814
 21
23534.651634601407
  0
LINE
  8
_0-1_
  6
CONTINUOUS
 62
    4
 10
2950
 20
23934.651634601407
 11
2950
 21
23534.651634601407
  0
LINE
  8
_0-1_
  6
CONTINUOUS
 62
    4
 10
5050
 20
23934.651634601407
 11
5050
 21
23534.651634601407
  0
LINE
  8
_0-4_
  6
CONTINUOUS
 62
    3
 10
0
 20
29700
 11
8000
 21
29700
  0
LINE
  8
_0-4_
  6
CONTINUOUS
 62
    3
 10
0
 20
29700
 11
8000
 21
29700
  0
LINE
  8
_0-4_
  6
CONTINUOUS
 62
    3
 10
0
 20
29700
 11
8000
 21
29700
  0
LINE
  8
_0-4_
  6
CONTINUOUS
 62
    3
 10
0
 20
29400
 11
8000
 21
29400
  0
LINE
  8
_0-4_
  6
CONTINUOUS
 62
    3
 10
2000
 20
29700
 11
2000
 21
29400
  0
LINE
  8
_0-4_
  6
CONTINUOUS
 62
    3
 10
4000
 20
29700
 11
4000
 21
29400
  0
LINE
  8
_0-4_
  6
CONTINUOUS
 62
    3
 10
8000
 20
29400
 11
8000
 21
29700
  0
LINE
  8
_0-1_
  6
CONTINUOUS
 62
    4
 10
5050
 20
26034.651634601407
 11
5050
 21
29400
  0
LINE
  8
_0-1_
  6
CONTINUOUS
 62
    4
 10
2950
 20
26034.651634601407
 11
2950
 21
29400
  0
LINE
  8
_0-2_
  6
DASHED1
 62
    7
 10
5090.0000000000009
 20
24374.864145103958
 11
5090.0000000000009
 21
29400
  0
LINE
  8
_0-3_
  6
CONTINUOUS
 62
    2
 10
5750
 20
24231.986300162622
 11
5750
 21
29400
  0
LINE
  8
_0-1_
  6
CONTINUOUS
 62
    4
 10
5430.0000000000009
 20
24151.986300162622
 11
5430.0000000000009
 21
29400
  0
LINE
  8
_0-0_
  6
CENTER1
 62
    4
 10
4000
 20
19700
 11
4000
 21
29400
  0
TEXT
  8
_0-1_
 62
    4
 10
557.36024140035454
 20
29450
 40
200
 41
1
 50
0
  1
虫ガード
  0
TEXT
  8
_0-1_
 62
    4
 10
7233.8546117923979
 20
29450
 40
200
 41
1
 50
0
  1
S=1/5
  0
TEXT
  8
_0-1_
 62
    4
 10
2457.3602414003544
 20
29450
 40
200
 41
1
 50
0
  1
標準納まり
  0
LINE
  8
_1-5_
  6
CONTINUOUS
 62
    7
 10
5284.5559155328629
 20
24774.864145103958
 11
5935.7233842487176
 21
25902.719285155832
  0
LINE
  8
_1-5_
  6
CONTINUOUS
 62
    7
 10
5935.7233842487176
 20
25902.719285155832
 11
6135.7233842487176
 21
25902.719285155832
  0
SOLID
  8
_1-5_
  6
CONTINUOUS
 62
    7
 10
5284.5559155328629
 20
24774.864145103958
 11
5315.3565945596429
 21
24872.551418614552
 12
5334.5559155328656
 22
24861.466685482403
 13
5334.5559155328656
 23
24861.466685482403
  0
LINE
  8
_1-5_
  6
CONTINUOUS
 62
    7
 10
5284.5559155328629
 20
24774.864145103958
 11
5315.3565945596429
 21
24872.551418614552
  0
LINE
  8
_1-5_
  6
CONTINUOUS
 62
    7
 10
5315.3565945596429
 20
24872.551418614552
 11
5334.5559155328656
 21
24861.466685482403
  0
LINE
  8
_1-5_
  6
CONTINUOUS
 62
    7
 10
5334.5559155328656
 20
24861.466685482403
 11
5284.5559155328629
 21
24774.864145103958
  0
TEXT
  8
_1-5_
 62
    5
 10
6135.7233842487176
 20
25802.719285155832
 40
200
 41
1
 50
0
  1
虫ガード
  0
ENDSEC
  0
EOF
