  0
SECTION
  2
HEADER
  9
$ACADVER
  1
AC1009
  9
$INSBASE
 10
0.0
 20
0.0
 30
0.0
  9
$EXTMIN
 10
0.0
 20
19700.0
 30
0.0
  9
$EXTMAX
 10
32100.5212784590694355
 20
29700.0
 30
0.0
  9
$LIMMIN
 10
0.0
 20
0.0
  9
$LIMMAX
 10
42000.0
 20
29700.0
  9
$ORTHOMODE
 70
     0
  9
$REGENMODE
 70
     1
  9
$FILLMODE
 70
     1
  9
$QTEXTMODE
 70
     0
  9
$MIRRTEXT
 70
     0
  9
$DRAGMODE
 70
     2
  9
$LTSCALE
 40
100.0
  9
$OSMODE
 70
    39
  9
$ATTMODE
 70
     1
  9
$TEXTSIZE
 40
0.2
  9
$TRACEWID
 40
0.05
  9
$TEXTSTYLE
  7
STANDARD
  9
$CLAYER
  8
0
  9
$CELTYPE
  6
CONTINUOUS
  9
$CECOLOR
 62
   256
  9
$DIMSCALE
 40
1.0
  9
$DIMASZ
 40
0.18
  9
$DIMEXO
 40
0.0625
  9
$DIMDLI
 40
0.38
  9
$DIMRND
 40
0.0
  9
$DIMDLE
 40
0.0
  9
$DIMEXE
 40
0.18
  9
$DIMTP
 40
0.0
  9
$DIMTM
 40
0.0
  9
$DIMTXT
 40
0.18
  9
$DIMCEN
 40
0.09
  9
$DIMTSZ
 40
0.0
  9
$DIMTOL
 70
     0
  9
$DIMLIM
 70
     0
  9
$DIMTIH
 70
     1
  9
$DIMTOH
 70
     1
  9
$DIMSE1
 70
     0
  9
$DIMSE2
 70
     0
  9
$DIMTAD
 70
     0
  9
$DIMZIN
 70
     0
  9
$DIMBLK
  1

  9
$DIMASO
 70
     1
  9
$DIMSHO
 70
     1
  9
$DIMPOST
  1

  9
$DIMAPOST
  1

  9
$DIMALT
 70
     0
  9
$DIMALTD
 70
     2
  9
$DIMALTF
 40
25.3999999999999986
  9
$DIMLFAC
 40
1.0
  9
$DIMTOFL
 70
     0
  9
$DIMTVP
 40
0.0
  9
$DIMTIX
 70
     0
  9
$DIMSOXD
 70
     0
  9
$DIMSAH
 70
     0
  9
$DIMBLK1
  1

  9
$DIMBLK2
  1

  9
$DIMSTYLE
  2
STANDARD
  9
$DIMCLRD
 70
     0
  9
$DIMCLRE
 70
     0
  9
$DIMCLRT
 70
     0
  9
$DIMTFAC
 40
1.0
  9
$DIMGAP
 40
0.09
  9
$LUNITS
 70
     2
  9
$LUPREC
 70
     4
  9
$SKETCHINC
 40
0.1
  9
$FILLETRAD
 40
0.0
  9
$AUNITS
 70
     0
  9
$AUPREC
 70
     0
  9
$MENU
  1
.
  9
$ELEVATION
 40
0.0
  9
$PELEVATION
 40
0.0
  9
$THICKNESS
 40
0.0
  9
$LIMCHECK
 70
     0
  9
$BLIPMODE
 70
     0
  9
$CHAMFERA
 40
0.0
  9
$CHAMFERB
 40
0.0
  9
$SKPOLY
 70
     0
  9
$TDCREATE
 40
2457704.3657870371825993
  9
$TDUPDATE
 40
2457705.4570949068292975
  9
$TDINDWG
 40
0.2584490741
  9
$TDUSRTIMER
 40
0.2584490741
  9
$USRTIMER
 70
     1
  9
$ANGBASE
 50
0.0
  9
$ANGDIR
 70
     0
  9
$PDMODE
 70
     0
  9
$PDSIZE
 40
0.0
  9
$PLINEWID
 40
0.0
  9
$COORDS
 70
     1
  9
$SPLFRAME
 70
     0
  9
$SPLINETYPE
 70
     6
  9
$SPLINESEGS
 70
     8
  9
$ATTDIA
 70
     1
  9
$ATTREQ
 70
     1
  9
$HANDLING
 70
     1
  9
$HANDSEED
  5
16E3
  9
$SURFTAB1
 70
     6
  9
$SURFTAB2
 70
     6
  9
$SURFTYPE
 70
     6
  9
$SURFU
 70
     6
  9
$SURFV
 70
     6
  9
$UCSNAME
  2

  9
$UCSORG
 10
0.0
 20
0.0
 30
0.0
  9
$UCSXDIR
 10
1.0
 20
0.0
 30
0.0
  9
$UCSYDIR
 10
0.0
 20
1.0
 30
0.0
  9
$PUCSNAME
  2

  9
$PUCSORG
 10
0.0
 20
0.0
 30
0.0
  9
$PUCSXDIR
 10
1.0
 20
0.0
 30
0.0
  9
$PUCSYDIR
 10
0.0
 20
1.0
 30
0.0
  9
$USERI1
 70
     0
  9
$USERI2
 70
     0
  9
$USERI3
 70
     0
  9
$USERI4
 70
     0
  9
$USERI5
 70
     0
  9
$USERR1
 40
0.0
  9
$USERR2
 40
0.0
  9
$USERR3
 40
0.0
  9
$USERR4
 40
0.0
  9
$USERR5
 40
0.0
  9
$WORLDVIEW
 70
     1
  9
$SHADEDGE
 70
     3
  9
$SHADEDIF
 70
    70
  9
$TILEMODE
 70
     1
  9
$MAXACTVP
 70
    64
  9
$PLIMCHECK
 70
     0
  9
$PEXTMIN
 10
1.0000000000000000E+20
 20
1.0000000000000000E+20
 30
1.0000000000000000E+20
  9
$PEXTMAX
 10
-1.0000000000000000E+20
 20
-1.0000000000000000E+20
 30
-1.0000000000000000E+20
  9
$PLIMMIN
 10
0.0
 20
0.0
  9
$PLIMMAX
 10
12.0
 20
9.0
  9
$UNITMODE
 70
     0
  9
$VISRETAIN
 70
     1
  9
$PLINEGEN
 70
     0
  9
$PSLTSCALE
 70
     1
  0
ENDSEC
  0
SECTION
  2
TABLES
  0
TABLE
  2
VPORT
 70
     1
  0
VPORT
  2
*ACTIVE
 70
     0
 10
0.0
 20
0.0
 11
1.0
 21
1.0
 12
21173.337289596991468
 22
23166.3601308231482108
 13
0.0
 23
0.0
 14
1.0
 24
1.0
 15
0.0
 25
0.0
 16
0.0
 26
0.0
 36
1.0
 17
0.0
 27
0.0
 37
0.0
 40
17793.4577932173087902
 41
2.6449375866851592
 42
50.0
 43
0.0
 44
0.0
 50
0.0
 51
0.0
 71
     0
 72
   100
 73
     1
 74
     1
 75
     0
 76
     0
 77
     0
 78
     0
  0
ENDTAB
  0
TABLE
  2
LTYPE
 70
    38
  0
LTYPE
  2
CONTINUOUS
 70
     0
  3
実線
 72
    65
 73
     0
 40
0.0
  0
LTYPE
  2
DASHED1
 70
     0
  3
--  --  --  --  --  --  --  --  
 72
    65
 73
     2
 40
2.5
 49
1.25
 49
-1.25
  0
LTYPE
  2
DASHED2
 70
     0
  3
----    ----    ----    ----    
 72
    65
 73
     2
 40
5.0
 49
2.5
 49
-2.5
  0
LTYPE
  2
DASHED3
 70
     0
  3
------  ------  ------  ------  
 72
    65
 73
     2
 40
5.0
 49
3.75
 49
-1.25
  0
LTYPE
  2
CENTER1
 70
     0
  3
----- - ----- - ----- - ----- - 
 72
    65
 73
     4
 40
10.0
 49
6.25
 49
-1.25
 49
1.25
 49
-1.25
  0
LTYPE
  2
CENTER2
 70
     0
  3
----------  --  ----------  --  
 72
    65
 73
     4
 40
20.0
 49
12.5
 49
-2.5
 49
2.5
 49
-2.5
  0
LTYPE
  2
PHANTOM1
 70
     0
  3
--- - - --- - - --- - - --- - - 
 72
    65
 73
     6
 40
10.0
 49
3.25
 49
-1.25
 49
1.25
 49
-1.25
 49
1.25
 49
-1.25
  0
LTYPE
  2
PHANTOM2
 70
     0
  3
--------  -  -  --------  -  -  
 72
    65
 73
     6
 40
20.0
 49
10.0
 49
-2.5
 49
1.25
 49
-2.5
 49
1.25
 49
-2.5
  0
LTYPE
  2
DOT
 70
     0
  3
-   -   -   -   -   -   -   -   
 72
    65
 73
     2
 40
2.5
 49
0.625
 49
-1.875
  0
LTYPE
  2
DUMMY
 70
     0
  3
ダミー
 72
    65
 73
     0
 40
0.0
  0
LTYPE
  2
RAND1
 70
     0
  3
ランダム線1
 72
    65
 73
     4
 40
10.0
 49
1.0
 49
-2.0
 49
3.0
 49
-4.0
  0
LTYPE
  2
RAND2
 70
     0
  3
ランダム線2
 72
    65
 73
     4
 40
14.0
 49
2.0
 49
-3.0
 49
4.0
 49
-5.0
  0
LTYPE
  2
RAND3
 70
     0
  3
ランダム線3
 72
    65
 73
     4
 40
18.0
 49
3.0
 49
-4.0
 49
5.0
 49
-6.0
  0
LTYPE
  2
RAND4
 70
     0
  3
ランダム線4
 72
    65
 73
     4
 40
22.0
 49
4.0
 49
-5.0
 49
6.0
 49
-7.0
  0
LTYPE
  2
RAND5
 70
     0
  3
ランダム線5
 72
    65
 73
     4
 40
26.0
 49
5.0
 49
-6.0
 49
7.0
 49
-8.0
  0
LTYPE
  2
LONG1
 70
     0
  3
----------  --  ----------  --  
 72
    65
 73
     4
 40
40.0
 49
32.5
 49
-2.5
 49
2.5
 49
-2.5
  0
LTYPE
  2
LONG2
 70
     0
  3
--------  -  -  --------  -  -  
 72
    65
 73
     6
 40
40.0
 49
30.0
 49
-2.5
 49
1.25
 49
-2.5
 49
1.25
 49
-2.5
  0
LTYPE
  2
LONG3
 70
     0
  3
+++++++++++++++..+++++++++++++++
 72
    65
 73
     2
 40
40.0
 49
37.5
 49
-2.5
  0
LTYPE
  2
LONG4
 70
     0
  3
+++++++++++++++..+++++++++++++++
 72
    65
 73
     2
 40
80.0
 49
75.0
 49
-5.0
  0
LTYPE
  2
LONG5
 70
     0
  3
----------  --  ----------  --  
 72
    65
 73
     4
 40
60.0
 49
37.5
 49
-7.5
 49
7.5
 49
-7.5
  0
LTYPE
  2
DASHED
 70
     0
  3
-------   -------------   ------
 72
    65
 73
     2
 40
7.5
 49
6.0
 49
-1.5
  0
LTYPE
  2
DASHED_SPACED
 70
     0
  3
----        --------        ----
 72
    65
 73
     2
 40
12.0
 49
6.0
 49
-6.0
  0
LTYPE
  2
LONG_DASHED_DOTTED
 70
     0
  3
------------- --- --------------
 72
    65
 73
     4
 40
15.25
 49
12.0
 49
-1.5
 49
0.25
 49
-1.5
  0
LTYPE
  2
LONG_DASHED_DOUBLE-DOTTED
 70
     0
  3
----------- --- --- ------------
 72
    65
 73
     6
 40
17.0
 49
12.0
 49
-1.5
 49
0.25
 49
-1.5
 49
0.25
 49
-1.5
  0
LTYPE
  2
LONG_DASHED_TRIPLICATE-DOT
 70
     0
  3
--------- --- --- --- ----------
 72
    65
 73
     8
 40
18.75
 49
12.0
 49
-1.5
 49
0.25
 49
-1.5
 49
0.25
 49
-1.5
 49
0.25
 49
-1.5
  0
LTYPE
  2
DOTTED
 70
     0
  3
   -       -       -       -    
 72
    65
 73
     2
 40
1.75
 49
0.25
 49
-1.5
  0
LTYPE
  2
CHAIN
 70
     0
  3
-------------- -- --------------
 72
    65
 73
     4
 40
18.5
 49
12.0
 49
-1.5
 49
3.5
 49
-1.5
  0
LTYPE
  2
CHAIN_DOUBLE_DASH
 70
     0
  3
------------ -- -- -------------
 72
    65
 73
     6
 40
23.5
 49
12.0
 49
-1.5
 49
3.5
 49
-1.5
 49
3.5
 49
-1.5
  0
LTYPE
  2
DASHED_DOTTED
 70
     0
  3
-----------     -     ----------
 72
    65
 73
     4
 40
9.25
 49
6.0
 49
-1.5
 49
0.25
 49
-1.5
  0
LTYPE
  2
DOUBLE-DASHED_DOTTED
 70
     0
  3
------   -----------   -   -----
 72
    65
 73
     6
 40
16.75
 49
6.0
 49
-1.5
 49
6.0
 49
-1.5
 49
0.25
 49
-1.5
  0
LTYPE
  2
DASHED_DOUBLE-DOTTED
 70
     0
  3
---------    -    -    ---------
 72
    65
 73
     6
 40
11.0
 49
6.0
 49
-1.5
 49
0.25
 49
-1.5
 49
0.25
 49
-1.5
  0
LTYPE
  2
DOUBLE-DASHED_DOUBLE-DOTTE
 70
     0
  3
-----   ---------   -   -   ----
 72
    65
 73
     8
 40
18.5
 49
6.0
 49
-1.5
 49
6.0
 49
-1.5
 49
0.25
 49
-1.5
 49
0.25
 49
-1.5
  0
LTYPE
  2
DASHED_TRIPLICATE-DOTTED
 70
     0
  3
-------    -    -    -    ------
 72
    65
 73
     8
 40
12.75
 49
6.0
 49
-1.5
 49
0.25
 49
-1.5
 49
0.25
 49
-1.5
 49
0.25
 49
-1.5
  0
LTYPE
  2
DOUBLE-DASHED_TRIPLICATE-D
 70
     0
  3
-----  ---------  -  -  -  -----
 72
    65
 73
    10
 40
20.25
 49
6.0
 49
-1.5
 49
6.0
 49
-1.5
 49
0.25
 49
-1.5
 49
0.25
 49
-1.5
 49
0.25
 49
-1.5
  0
LTYPE
  2
UNDEFINED
 70
     0
  3
--------------------------------
 72
    65
 73
     0
 40
0.0
  0
LTYPE
  2
破線A
 70
     0
  3

 72
    65
 73
     2
 40
3.5
 49
2.7999999999999989
 49
-0.7
  0
LTYPE
  2
HIDDEN
 70
     0
  3
Hidden __ __ __ __ __ __ __ __ __ __ __ __ __ _
 72
    65
 73
     2
 40
9.5249999999999968
 49
6.3499999999999979
 49
-3.174999999999998
  0
LTYPE
  2
CENTER
 70
     0
  3
Center ____ _ ____ _ ____ _ ____ _ ____ _ ____
 72
    65
 73
     4
 40
50.7999999999999972
 49
31.75
 49
-6.3499999999999979
 49
6.3499999999999979
 49
-6.3499999999999979
  0
ENDTAB
  0
TABLE
  2
LAYER
 70
    12
  0
LAYER
  2
0
 70
     0
 62
     7
  6
CONTINUOUS
  0
LAYER
  2
_0-0_
 70
     0
 62
     7
  6
CONTINUOUS
  0
LAYER
  2
_0-1_
 70
     0
 62
     7
  6
CONTINUOUS
  0
LAYER
  2
_0-2_
 70
     0
 62
     7
  6
CONTINUOUS
  0
LAYER
  2
_0-3_
 70
     0
 62
     7
  6
CONTINUOUS
  0
LAYER
  2
_0-4_
 70
     0
 62
     7
  6
CONTINUOUS
  0
LAYER
  2
_0-5_
 70
     0
 62
     7
  6
CONTINUOUS
  0
LAYER
  2
_1-5_
 70
     0
 62
     7
  6
CONTINUOUS
  0
LAYER
  2
ADD_LINE
 70
     0
 62
     7
  6
CONTINUOUS
  0
LAYER
  2
DEFPOINTS
 70
     0
 62
     7
  6
CONTINUOUS
  0
LAYER
  2
ﾚｲﾔ1
 70
     0
 62
     7
  6
CONTINUOUS
  0
LAYER
  2
ﾚｲﾔ9
 70
     0
 62
     8
  6
破線A
  0
ENDTAB
  0
TABLE
  2
STYLE
 70
     3
  0
STYLE
  2
STANDARD
 70
     0
 40
0.0
 41
1.0
 50
0.0
 71
     0
 42
0.2
  3
txt
  4
bigfont.shx
  0
STYLE
  2
ANNOTATIVE
 70
     0
 40
0.0
 41
1.0
 50
0.0
 71
     0
 42
0.2
  3
txt
  4

  0
STYLE
  2
TATEGAKI
 70
     4
 40
0.0
 41
1.0
 50
0.0
 71
     0
 42
1.0
  3
txt
  4
bigfont.shx
  0
ENDTAB
  0
TABLE
  2
VIEW
 70
     0
  0
ENDTAB
  0
TABLE
  2
UCS
 70
     0
  0
ENDTAB
  0
TABLE
  2
APPID
 70
     7
  0
APPID
  2
ACAD
 70
     0
  0
APPID
  2
ACADANNOTATIVE
 70
     0
  0
APPID
  2
ACAD_NAV_VCDISPLAY
 70
     0
  0
APPID
  2
ACAD_MLEADERVER
 70
     0
  0
APPID
  2
GRADIENTCOLOR1ACI
 70
     0
  0
APPID
  2
GRADIENTCOLOR2ACI
 70
     0
  0
APPID
  2
ACAD_EXEMPT_FROM_CAD_STANDARDS
 70
     0
  0
ENDTAB
  0
TABLE
  2
DIMSTYLE
 70
     3
  0
DIMSTYLE
  2
STANDARD
 70
     0
  3

  4

  5

  6

  7

 40
1.0
 41
0.18
 42
0.0625
 43
0.38
 44
0.18
 45
0.0
 46
0.0
 47
0.0
 48
0.0
140
0.18
141
0.09
142
0.0
143
25.3999999999999986
144
1.0
145
0.0
146
1.0
147
0.09
 71
     0
 72
     0
 73
     1
 74
     1
 75
     0
 76
     0
 77
     0
 78
     0
170
     0
171
     2
172
     0
173
     0
174
     0
175
     0
176
     0
177
     0
178
     0
  0
DIMSTYLE
  2
ANNOTATIVE
 70
     0
  3

  4

  5

  6

  7

 40
1.0
 41
0.18
 42
0.0625
 43
0.38
 44
0.18
 45
0.0
 46
0.0
 47
0.0
 48
0.0
140
0.18
141
0.09
142
0.0
143
25.3999999999999986
144
1.0
145
0.0
146
1.0
147
0.09
 71
     0
 72
     0
 73
     1
 74
     1
 75
     0
 76
     0
 77
     0
 78
     0
170
     0
171
     2
172
     0
173
     0
174
     0
175
     0
176
     0
177
     0
178
     0
  0
DIMSTYLE
  2
ISO-25
 70
     0
  3

  4

  5

  6

  7

 40
1.0
 41
2.5
 42
0.625
 43
3.75
 44
1.25
 45
0.0
 46
0.0
 47
0.0
 48
0.0
140
2.5
141
2.5
142
0.0
143
0.03937007874016
144
1.0
145
0.0
146
1.0
147
0.625
 71
     0
 72
     0
 73
     0
 74
     0
 75
     0
 76
     0
 77
     1
 78
     8
170
     0
171
     3
172
     1
173
     0
174
     0
175
     0
176
     0
177
     0
178
     0
  0
ENDTAB
  0
ENDSEC
  0
SECTION
  2
BLOCKS
  0
BLOCK
  8
0
  2
$MODEL_SPACE
 70
     0
 10
0.0
 20
0.0
 30
0.0
  3
$MODEL_SPACE
  1

  0
ENDBLK
  5
71
  8
0
  0
BLOCK
 67
     1
  8
0
  2
$PAPER_SPACE
 70
     0
 10
0.0
 20
0.0
 30
0.0
  3
$PAPER_SPACE
  1

  0
ENDBLK
  5
6D
 67
     1
  8
0
  0
BLOCK
  8
0
  2
_OPEN30
 70
     0
 10
0.0
 20
0.0
 30
0.0
  3
_OPEN30
  1

  0
LINE
  5
217
  8
0
  6
BYBLOCK
 62
     0
 10
-1.0
 20
0.26794919
 30
0.0
 11
0.0
 21
0.0
 31
0.0
  0
LINE
  5
218
  8
0
  6
BYBLOCK
 62
     0
 10
0.0
 20
0.0
 30
0.0
 11
-1.0
 21
-0.26794919
 31
0.0
  0
LINE
  5
219
  8
0
  6
BYBLOCK
 62
     0
 10
0.0
 20
0.0
 30
0.0
 11
-1.0
 21
0.0
 31
0.0
  0
ENDBLK
  5
21A
  8
0
  0
BLOCK
  8
0
  2
_TAGCIRCLE
 70
     2
 10
0.0
 20
0.0
 30
0.0
  3
_TAGCIRCLE
  1

  0
CIRCLE
  5
21D
  8
0
  6
BYBLOCK
 62
     0
 10
0.0
 20
0.0
 30
0.0
 40
4.0
  0
ATTDEF
  5
21E
  8
0
 62
     0
 10
-7.0
 20
-1.5
 30
0.0
 40
3.0
  1
タグ番号
 72
     1
 11
0.0
 21
-1.5
 31
0.0
  3
タグ番号を入力
  2
タグ番号
 70
     0
  0
ENDBLK
  5
21F
  8
0
  0
BLOCK
  8
0
  2
*X2
 70
     1
 10
0.0
 20
0.0
 30
0.0
  3
*X2
  1

  0
LINE
  5
16D7
  8
0
  6
CONTINUOUS
 62
     0
 10
31998.7202042779717885
 20
26529.1063676997291623
 30
0.0
 11
26998.7202042779717885
 21
26529.1063676997291623
 31
0.0
  0
LINE
  5
16D8
  8
0
  6
CONTINUOUS
 62
     0
 10
31998.7202042779717885
 20
26491.6063676997291623
 30
0.0
 11
26998.7202042779717885
 21
26491.6063676997291623
 31
0.0
  0
LINE
  5
16D9
  8
0
  6
CONTINUOUS
 62
     0
 10
31998.7202042779717885
 20
26454.1063676997291623
 30
0.0
 11
26998.7202042779717885
 21
26454.1063676997291623
 31
0.0
  0
LINE
  5
16DA
  8
0
  6
CONTINUOUS
 62
     0
 10
31998.7202042779717885
 20
26416.6063676997291623
 30
0.0
 11
26998.7202042779717885
 21
26416.6063676997291623
 31
0.0
  0
LINE
  5
16DB
  8
0
  6
CONTINUOUS
 62
     0
 10
31998.7202042779717885
 20
26379.1063676997291623
 30
0.0
 11
26998.7202042779717885
 21
26379.1063676997291623
 31
0.0
  0
LINE
  5
16DC
  8
0
  6
CONTINUOUS
 62
     0
 10
31998.7202042779717885
 20
26341.6063676997291623
 30
0.0
 11
26998.7202042779717885
 21
26341.6063676997291623
 31
0.0
  0
LINE
  5
16DD
  8
0
  6
CONTINUOUS
 62
     0
 10
31998.7202042779717885
 20
26304.1063676997291623
 30
0.0
 11
26998.7202042779717885
 21
26304.1063676997291623
 31
0.0
  0
LINE
  5
16DE
  8
0
  6
CONTINUOUS
 62
     0
 10
31998.7202042779717885
 20
26266.6063676997291623
 30
0.0
 11
26998.7202042779717885
 21
26266.6063676997291623
 31
0.0
  0
ENDBLK
  5
16E0
  8
0
  0
ENDSEC
  0
SECTION
  2
ENTITIES
  0
LINE
  5
A1
  8
_0-4_
  6
CONTINUOUS
 62
     3
 10
0.0
 20
29700.0
 30
0.0
 11
8000.0
 21
29700.0
 31
0.0
  0
LINE
  5
A2
  8
_0-4_
  6
CONTINUOUS
 62
     3
 10
16000.0
 20
29700.0
 30
0.0
 11
24000.0
 21
29700.0
 31
0.0
  0
LINE
  5
BB
  8
_0-4_
  6
CONTINUOUS
 62
     3
 10
0.0
 20
19700.0
 30
0.0
 11
0.0
 21
29700.0
 31
0.0
  0
LINE
  5
BF
  8
_0-4_
  6
CONTINUOUS
 62
     3
 10
24000.0
 20
19700.0
 30
0.0
 11
24000.0
 21
29700.0
 31
0.0
  0
LINE
  5
C0
  8
_0-1_
  6
CONTINUOUS
 62
     4
 10
18922.802420308249566
 20
22761.3514806221392064
 30
0.0
 11
21022.802420308249566
 21
22761.3514806221392064
 31
0.0
  0
LINE
  5
C1
  8
_0-1_
  6
CONTINUOUS
 62
     4
 10
21022.802420308249566
 20
24861.3514806221392064
 30
0.0
 11
18922.802420308249566
 21
24861.3514806221392064
 31
0.0
  0
LINE
  5
C2
  8
_0-1_
  6
CONTINUOUS
 62
     4
 10
18922.802420308249566
 20
22761.3514806221392064
 30
0.0
 11
21022.802420308249566
 21
24861.3514806221392064
 31
0.0
  0
LINE
  5
C3
  8
_0-1_
  6
CONTINUOUS
 62
     4
 10
21022.802420308249566
 20
22761.3514806221392064
 30
0.0
 11
18922.802420308249566
 21
24861.3514806221392064
 31
0.0
  0
LINE
  5
C4
  8
_0-1_
  6
CONTINUOUS
 62
     4
 10
21982.8024203082604799
 20
26866.6811459063392249
 30
0.0
 11
22462.802420308249566
 21
26866.6811459063392249
 31
0.0
  0
LINE
  5
C5
  8
_0-1_
  6
CONTINUOUS
 62
     4
 10
19392.802420308249566
 20
24861.3514806221392064
 30
0.0
 11
21982.8024203082604799
 21
25897.3514806221392064
 31
0.0
  0
LINE
  5
C6
  8
_0-1_
  6
CONTINUOUS
 62
     4
 10
22462.802420308249566
 20
26517.1690566487814067
 30
0.0
 11
23062.802420308249566
 21
26517.1690566487814067
 31
0.0
  0
LINE
  5
C7
  8
_0-1_
  6
CONTINUOUS
 62
     4
 10
23062.802420308249566
 20
26517.1690566487814067
 30
0.0
 11
23062.802420308249566
 21
27317.1690566487814067
 31
0.0
  0
LINE
  5
C8
  8
_0-1_
  6
CONTINUOUS
 62
     4
 10
23062.802420308249566
 20
27317.1690566487814067
 30
0.0
 11
22462.802420308249566
 21
27317.1690566487814067
 31
0.0
  0
LINE
  5
C9
  8
_0-1_
  6
CONTINUOUS
 62
     4
 10
22462.802420308249566
 20
27317.1690566487814067
 30
0.0
 11
22462.802420308249566
 21
26517.1690566487814067
 31
0.0
  0
LINE
  5
CA
  8
_0-1_
  6
CONTINUOUS
 62
     4
 10
22462.802420308249566
 20
26517.1690566487814067
 30
0.0
 11
23062.802420308249566
 21
27317.1690566487814067
 31
0.0
  0
LINE
  5
CB
  8
_0-2_
  6
DASHED1
 62
     7
 10
23062.802420308249566
 20
27337.1690566487814067
 30
0.0
 11
22462.802420308249566
 21
27337.1690566487814067
 31
0.0
  0
LINE
  5
CC
  8
_0-1_
  6
CONTINUOUS
 62
     4
 10
22462.802420308249566
 20
27058.6811459063392249
 30
0.0
 11
22373.6686579832712596
 21
27281.5155517187995429
 31
0.0
  0
LINE
  5
CD
  8
_0-4_
  6
CONTINUOUS
 62
     3
 10
23082.802420308249566
 20
26477.1690566487814067
 30
0.0
 11
23082.802420308249566
 21
27357.1690566487814067
 31
0.0
  0
LINE
  5
CE
  8
_0-4_
  6
CONTINUOUS
 62
     3
 10
23082.802420308249566
 20
27357.1690566487814067
 30
0.0
 11
22455.0991241655210615
 21
27357.1690566487814067
 31
0.0
  0
LINE
  5
CF
  8
_0-4_
  6
CONTINUOUS
 62
     3
 10
23082.802420308249566
 20
26477.1690566487814067
 30
0.0
 11
23082.802420308249566
 21
26377.1690566487704928
 31
0.0
  0
LINE
  5
D0
  8
_0-4_
  6
CONTINUOUS
 62
     3
 10
23082.802420308249566
 20
26377.1690566487704928
 30
0.0
 11
23062.802420308249566
 21
26377.1690566487704928
 31
0.0
  0
LINE
  5
D1
  8
_0-4_
  6
CONTINUOUS
 62
     3
 10
22482.802420308249566
 20
26497.1690566487886827
 30
0.0
 11
23062.802420308249566
 21
26497.1690566487886827
 31
0.0
  0
LINE
  5
D2
  8
_0-4_
  6
CONTINUOUS
 62
     3
 10
23062.802420308249566
 20
26377.1690566487704928
 30
0.0
 11
23062.802420308249566
 21
26497.1690566487886827
 31
0.0
  0
LINE
  5
D3
  8
_0-4_
  6
CONTINUOUS
 62
     3
 10
23062.802420308249566
 20
26477.1690566487814067
 30
0.0
 11
22482.802420308249566
 21
26477.1690566487814067
 31
0.0
  0
LINE
  5
D4
  8
_0-1_
  6
CONTINUOUS
 62
     4
 10
18922.802420308249566
 20
24673.3514806221392064
 30
0.0
 11
16000.0
 21
23504.2305124988415628
 31
0.0
  0
LINE
  5
D5
  8
_0-2_
  6
DASHED1
 62
     7
 10
22462.802420308249566
 20
27338.7097158773285628
 30
0.0
 11
16000.0
 21
24753.5887477540381951
 31
0.0
  0
LINE
  5
D6
  8
_0-2_
  6
DASHED1
 62
     7
 10
22462.802420308249566
 20
27338.7097158773285628
 30
0.0
 11
16000.0
 21
24753.5887477540381951
 31
0.0
  0
LINE
  5
D7
  8
_0-1_
  6
CONTINUOUS
 62
     4
 10
22462.802420308249566
 20
27058.6811459063392249
 30
0.0
 11
16000.0
 21
24473.5601777830415813
 31
0.0
  0
LINE
  5
D8
  8
_0-1_
  6
CONTINUOUS
 62
     4
 10
22462.802420308249566
 20
27317.1690566487886827
 30
0.0
 11
16000.0
 21
24732.048088525498315
 31
0.0
  0
LINE
  5
D9
  8
_0-4_
  6
CONTINUOUS
 62
     3
 10
22455.0991241655210615
 20
27357.1690566487814067
 30
0.0
 11
16000.0
 21
24775.1294069825707993
 31
0.0
  0
LINE
  5
DA
  8
_0-1_
  6
CONTINUOUS
 62
     4
 10
21022.802420308249566
 20
24861.3514806221392064
 30
0.0
 11
21022.802420308249566
 21
19700.0
 31
0.0
  0
LINE
  5
DB
  8
_0-1_
  6
CONTINUOUS
 62
     4
 10
18922.802420308249566
 20
24861.3514806221392064
 30
0.0
 11
18922.802420308249566
 21
19700.0
 31
0.0
  0
LINE
  5
DC
  8
_0-2_
  6
DASHED1
 62
     7
 10
21042.802420308249566
 20
24861.3514806221392064
 30
0.0
 11
21042.802420308249566
 21
19700.0
 31
0.0
  0
LINE
  5
DD
  8
_0-0_
  6
CENTER1
 62
     4
 10
19972.802420308249566
 20
29400.0
 30
0.0
 11
19972.802420308249566
 21
19700.0
 31
0.0
  0
LINE
  5
F8
  8
_0-1_
  6
CONTINUOUS
 62
     4
 10
21982.8024203082604799
 20
23866.6811459063392249
 30
0.0
 11
21982.8024203082604799
 21
26866.6811459063392249
 31
0.0
  0
LINE
  5
F9
  8
_0-1_
  6
CONTINUOUS
 62
     4
 10
22462.802420308249566
 20
23866.6811459063392249
 30
0.0
 11
21982.8024203082604799
 21
23866.6811459063392249
 31
0.0
  0
LINE
  5
FA
  8
_0-1_
  6
CONTINUOUS
 62
     4
 10
22462.802420308249566
 20
26866.6811459063392249
 30
0.0
 11
22462.802420308249566
 21
23866.6811459063392249
 31
0.0
  0
LINE
  5
FB
  8
_0-4_
  6
CONTINUOUS
 62
     3
 10
22482.802420308249566
 20
26477.1690566487814067
 30
0.0
 11
22482.802420308249566
 21
23846.6811459063392249
 31
0.0
  0
LINE
  5
FC
  8
_0-4_
  6
CONTINUOUS
 62
     3
 10
22482.802420308249566
 20
23846.6811459063392249
 30
0.0
 11
21962.802420308249566
 21
23846.6811459063392249
 31
0.0
  0
LINE
  5
FD
  8
_0-1_
  6
CONTINUOUS
 62
     4
 10
22462.802420308249566
 20
26866.6811459063392249
 30
0.0
 11
21982.8024203082604799
 21
23866.6811459063392249
 31
0.0
  0
LINE
  5
FE
  8
_0-1_
  6
CONTINUOUS
 62
     4
 10
21382.8024203082604799
 20
25657.3514806221392064
 30
0.0
 11
21982.8024203082604799
 21
25657.3514806221392064
 31
0.0
  0
LINE
  5
FF
  8
_0-1_
  6
CONTINUOUS
 62
     4
 10
21382.8024203082604799
 20
25657.3514806221392064
 30
0.0
 11
21382.8024203082604799
 21
19700.0
 31
0.0
  0
LINE
  5
100
  8
_0-1_
  6
CONTINUOUS
 62
     4
 10
21382.8024203082604799
 20
24861.3514806221392064
 30
0.0
 11
21022.802420308249566
 21
24861.3514806221392064
 31
0.0
  0
LINE
  5
101
  8
_0-1_
  6
CONTINUOUS
 62
     4
 10
21402.802420308249566
 20
24626.6811459063392249
 30
0.0
 11
21982.8024203082604799
 21
25657.3514806221392064
 31
0.0
  0
LINE
  5
102
  8
_0-1_
  6
CONTINUOUS
 62
     4
 10
21402.802420308249566
 20
24626.6811459063392249
 30
0.0
 11
21382.8024203082604799
 21
24626.6811459063392249
 31
0.0
  0
LINE
  5
105
  8
_0-1_
  6
CONTINUOUS
 62
     4
 10
21982.8024203082604799
 20
24626.6811459063392249
 30
0.0
 11
21982.8024203082604799
 21
25625.3514806221392064
 31
0.0
  0
LINE
  5
106
  8
_0-3_
  6
CONTINUOUS
 62
     2
 10
21702.8024203082604799
 20
24046.6811459063392249
 30
0.0
 11
21702.8024203082604799
 21
19700.0
 31
0.0
  0
LINE
  5
115
  8
_0-4_
  6
CONTINUOUS
 62
     3
 10
21962.802420308249566
 20
23846.6811459063392249
 30
0.0
 11
21962.802420308249566
 21
24035.5700347952406446
 31
0.0
  0
LINE
  5
116
  8
_0-4_
  6
CONTINUOUS
 62
     3
 10
16000.0
 20
19700.0
 30
0.0
 11
24000.0
 21
19700.0
 31
0.0
  0
LINE
  5
117
  8
_0-4_
  6
CONTINUOUS
 62
     3
 10
0.0
 20
29700.0
 30
0.0
 11
8000.0
 21
29700.0
 31
0.0
  0
LINE
  5
118
  8
_0-4_
  6
CONTINUOUS
 62
     3
 10
16000.0
 20
29700.0
 30
0.0
 11
24000.0
 21
29700.0
 31
0.0
  0
LINE
  5
119
  8
_0-4_
  6
CONTINUOUS
 62
     3
 10
0.0
 20
29400.0
 30
0.0
 11
8000.0
 21
29400.0
 31
0.0
  0
LINE
  5
11A
  8
_0-4_
  6
CONTINUOUS
 62
     3
 10
2000.0
 20
29700.0
 30
0.0
 11
2000.0
 21
29400.0
 31
0.0
  0
LINE
  5
11B
  8
_0-4_
  6
CONTINUOUS
 62
     3
 10
4000.0
 20
29700.0
 30
0.0
 11
4000.0
 21
29400.0
 31
0.0
  0
LINE
  5
11C
  8
_0-4_
  6
CONTINUOUS
 62
     3
 10
16000.0
 20
29400.0
 30
0.0
 11
24000.0
 21
29400.0
 31
0.0
  0
LINE
  5
11D
  8
_0-4_
  6
CONTINUOUS
 62
     3
 10
18000.0
 20
29700.0
 30
0.0
 11
18000.0
 21
29400.0
 31
0.0
  0
LINE
  5
11E
  8
_0-4_
  6
CONTINUOUS
 62
     3
 10
20000.0
 20
29700.0
 30
0.0
 11
20000.0
 21
29400.0
 31
0.0
  0
TEXT
  5
11F
  8
_0-1_
 62
     4
 10
2657.3602414003539707
 20
29450.0
 30
0.0
 40
200.0
  1
ベランダ
  0
LINE
  5
120
  8
_0-4_
  6
CONTINUOUS
 62
     3
 10
16000.0
 20
19700.0
 30
0.0
 11
24000.0
 21
19700.0
 31
0.0
  0
TEXT
  5
121
  8
_0-1_
 62
     4
 10
357.3602414003544823
 20
29450.0
 30
0.0
 40
200.0
  1
アイテーエル
  0
TEXT
  5
122
  8
_0-1_
 62
     4
 10
16357.3602414003507874
 20
29450.0
 30
0.0
 40
200.0
  1
アイテーエル
  0
LINE
  5
123
  8
_0-4_
  6
CONTINUOUS
 62
     3
 10
0.0
 20
19700.0
 30
0.0
 11
8000.0
 21
19700.0
 31
0.0
  0
LINE
  5
124
  8
_0-4_
  6
CONTINUOUS
 62
     3
 10
0.0
 20
19700.0
 30
0.0
 11
8000.0
 21
19700.0
 31
0.0
  0
TEXT
  5
125
  8
_0-1_
 62
     4
 10
7233.8546117923970087
 20
29450.0
 30
0.0
 40
200.0
  1
S=1/5
  0
TEXT
  5
126
  8
_0-1_
 62
     4
 10
23233.8546117924015562
 20
29450.0
 30
0.0
 40
200.0
  1
S=1/5
  0
TEXT
  5
127
  8
_0-1_
 62
     4
 10
18057.3602414003617014
 20
29450.0
 30
0.0
 40
200.0
  1
軒の出のない納まり
  0
LINE
  5
128
  8
_0-4_
  6
CONTINUOUS
 62
     3
 10
8000.0
 20
19700.0
 30
0.0
 11
8000.0
 21
29700.0
 31
0.0
  0
LINE
  5
129
  8
_0-4_
  6
CONTINUOUS
 62
     3
 10
16000.0
 20
19700.0
 30
0.0
 11
16000.0
 21
29700.0
 31
0.0
  0
LINE
  5
12A
  8
_0-4_
  6
CONTINUOUS
 62
     3
 10
8000.0
 20
19700.0
 30
0.0
 11
16000.0
 21
19700.0
 31
0.0
  0
LINE
  5
171
  8
_0-4_
  6
CONTINUOUS
 62
     3
 10
8000.0
 20
29400.0
 30
0.0
 11
16000.0
 21
29400.0
 31
0.0
  0
LINE
  5
172
  8
_0-4_
  6
CONTINUOUS
 62
     3
 10
10000.0
 20
29700.0
 30
0.0
 11
10000.0
 21
29400.0
 31
0.0
  0
LINE
  5
173
  8
_0-4_
  6
CONTINUOUS
 62
     3
 10
12000.0
 20
29700.0
 30
0.0
 11
12000.0
 21
29400.0
 31
0.0
  0
LINE
  5
174
  8
_0-4_
  6
CONTINUOUS
 62
     3
 10
8000.0
 20
19700.0
 30
0.0
 11
16000.0
 21
19700.0
 31
0.0
  0
TEXT
  5
175
  8
_0-1_
 62
     4
 10
8357.3602414003544254
 20
29450.0
 30
0.0
 40
200.0
  1
アイテーエル
  0
TEXT
  5
176
  8
_0-1_
 62
     4
 10
15233.8546117923997372
 20
29450.0
 30
0.0
 40
200.0
  1
S=1/5
  0
LINE
  5
178
  8
_0-4_
  6
CONTINUOUS
 62
     3
 10
24000.0
 20
29700.0
 30
0.0
 11
32000.0
 21
29700.0
 31
0.0
  0
LINE
  5
179
  8
_0-4_
  6
CONTINUOUS
 62
     3
 10
24000.0
 20
19700.0
 30
0.0
 11
24000.0
 21
29700.0
 31
0.0
  0
LINE
  5
17A
  8
_0-4_
  6
CONTINUOUS
 62
     3
 10
32000.0
 20
19700.0
 30
0.0
 11
32000.0
 21
29700.0
 31
0.0
  0
LINE
  5
17B
  8
_0-4_
  6
CONTINUOUS
 62
     3
 10
24000.0
 20
19700.0
 30
0.0
 11
32000.0
 21
19700.0
 31
0.0
  0
LINE
  5
19D
  8
_0-4_
  6
CONTINUOUS
 62
     3
 10
24000.0
 20
29700.0
 30
0.0
 11
32000.0
 21
29700.0
 31
0.0
  0
LINE
  5
19E
  8
_0-4_
  6
CONTINUOUS
 62
     3
 10
24000.0
 20
29400.0
 30
0.0
 11
32000.0
 21
29400.0
 31
0.0
  0
LINE
  5
19F
  8
_0-4_
  6
CONTINUOUS
 62
     3
 10
26000.0
 20
29700.0
 30
0.0
 11
26000.0
 21
29400.0
 31
0.0
  0
LINE
  5
1A0
  8
_0-4_
  6
CONTINUOUS
 62
     3
 10
28000.0
 20
29700.0
 30
0.0
 11
28000.0
 21
29400.0
 31
0.0
  0
LINE
  5
1A1
  8
_0-4_
  6
CONTINUOUS
 62
     3
 10
24000.0
 20
19700.0
 30
0.0
 11
32000.0
 21
19700.0
 31
0.0
  0
TEXT
  5
1A2
  8
_0-1_
 62
     4
 10
24357.3602414003617014
 20
29450.0
 30
0.0
 40
200.0
  1
アイテーエル
  0
TEXT
  5
1A3
  8
_0-1_
 62
     4
 10
31233.8546117924015562
 20
29450.0
 30
0.0
 40
200.0
  1
S=1/5
  0
LINE
  5
1A5
  8
_0-4_
  6
CONTINUOUS
 62
     3
 10
8000.0
 20
29700.0
 30
0.0
 11
16000.0
 21
29700.0
 31
0.0
  0
LINE
  5
1A6
  8
_0-4_
  6
CONTINUOUS
 62
     3
 10
8000.0
 20
29700.0
 30
0.0
 11
16000.0
 21
29700.0
 31
0.0
  0
LINE
  5
1A7
  8
_0-4_
  6
CONTINUOUS
 62
     3
 10
24000.0
 20
29700.0
 30
0.0
 11
32000.0
 21
29700.0
 31
0.0
  0
LINE
  5
1A8
  8
_0-4_
  6
CONTINUOUS
 62
     3
 10
24000.0
 20
29700.0
 30
0.0
 11
32000.0
 21
29700.0
 31
0.0
  0
TEXT
  5
1CF
  8
_0-1_
 62
     4
 10
10007.3602414003507874
 20
29450.0
 30
0.0
 40
200.0
  1
ベランダ2
  0
TEXT
  5
1D0
  8
_0-1_
 62
     4
 10
26007.3602414003507874
 20
29450.0
 30
0.0
 40
200.0
  1
ケラバの納まり
  0
LINE
  5
1DF
  8
_1-5_
  6
CONTINUOUS
 62
     7
 10
21822.8024203082604799
 20
24052.0108111905610713
 30
0.0
 11
22284.1860729448490019
 21
23252.870883042258356
 31
0.0
  0
LINE
  5
1E0
  8
_1-5_
  6
CONTINUOUS
 62
     7
 10
22284.1860729448490019
 20
23252.870883042258356
 30
0.0
 11
22484.1860729448490019
 21
23252.870883042258356
 31
0.0
  0
SOLID
  5
1E1
  8
_1-5_
  6
CONTINUOUS
 62
     7
 10
21822.8024203082604799
 20
24052.0108111905610713
 30
0.0
 11
21892.0017412814813724
 21
23976.4930039442588168
 31
0.0
 12
21872.802420308249566
 22
23965.4082708121095493
 32
0.0
 13
21872.802420308249566
 23
23965.4082708121095493
 33
0.0
  0
LINE
  5
1E2
  8
_1-5_
  6
CONTINUOUS
 62
     7
 10
21822.8024203082604799
 20
24052.0108111905610713
 30
0.0
 11
21892.0017412814813724
 21
23976.4930039442588168
 31
0.0
  0
LINE
  5
1E3
  8
_1-5_
  6
CONTINUOUS
 62
     7
 10
21892.0017412814813724
 20
23976.4930039442588168
 30
0.0
 11
21872.802420308249566
 21
23965.4082708121095493
 31
0.0
  0
LINE
  5
1E4
  8
_1-5_
  6
CONTINUOUS
 62
     7
 10
21872.802420308249566
 20
23965.4082708121095493
 30
0.0
 11
21822.8024203082604799
 21
24052.0108111905610713
 31
0.0
  0
TEXT
  5
1E5
  8
_1-5_
 62
     5
 10
22484.1860729448490019
 20
23152.8708830422692699
 30
0.0
 40
200.0
  1
アイテーエル
  0
INSERT
  5
308
  8
_0-1_
  6
CONTINUOUS
 62
     4
  2
*X2
 10
0.0
 20
0.0
 30
0.0
1001
GRADIENTCOLOR1ACI
1070
     5
1001
GRADIENTCOLOR2ACI
1070
     2
1001
ACAD
1000
HATCH
1002
{
1070
    19
1000
ANSI31
1040
300.0
1040
2.3561944901923439
1000
R14_HATCH_DATA
1000
308
1011
1.0
1021
0.0
1031
0.0
1021
0.0
1031
0.0
1011
0.0
1021
0.0
1031
0.0
1021
1.0
1031
0.0
1011
0.0
1021
0.0
1031
0.0
1021
0.0
1031
1.0
1040
0.0
1010
0.0
1020
0.0
1030
1.0
1000
ANSI31
1070
     0
1070
     0
1071
        1
1071
        7
1070
     0
1070
     1
1071
        8
1040
31998.7202042779717885
1040
26539.0360986011692148
1040
26998.7202042779717885
1040
26539.0360986011692148
1040
26998.7202042779717885
1040
26239.0360986011583009
1040
27578.7202042779717885
1040
26239.0360986011583009
1040
27938.7202042779717885
1040
26239.0360986011583009
1040
28188.7202042779717885
1040
26239.0360986011583009
1040
30288.7202042779717885
1040
26239.0360986011583009
1040
31998.7202042779717885
1040
26239.0360986011583009
1071
        0
1070
     1
1070
     1
1040
2.3561944901923439
1040
300.0
1070
     0
1070
     1
1040
3.1415926535897931
1040
26942.3181456885904481
1040
27954.1063676997291623
1040
-0.0000000000000067
1040
-37.5
1070
     0
1040
0.298802156246797
1071
        1
1040
29716.3055328244408884
1040
26397.302730608949787
1040
0.0
1002
}
  0
LINE
  5
309
  8
_0-1_
  6
CONTINUOUS
 62
     4
 10
27578.7202042779717885
 20
26239.0360986011583009
 30
0.0
 11
30288.7202042779717885
 21
26239.0360986011583009
 31
0.0
  0
LINE
  5
30A
  8
_0-1_
  6
CONTINUOUS
 62
     4
 10
30288.7202042779717885
 20
26239.0360986011583009
 30
0.0
 11
30288.7202042779717885
 21
24139.0360986011583009
 31
0.0
  0
LINE
  5
30B
  8
_0-1_
  6
CONTINUOUS
 62
     4
 10
30288.7202042779717885
 20
24139.0360986011583009
 30
0.0
 11
28188.7202042779717885
 21
24139.0360986011583009
 31
0.0
  0
LINE
  5
30C
  8
0
  6
CONTINUOUS
 10
27942.3181456885795342
 20
19700.0
 30
0.0
 11
27942.3181456885904481
 21
22839.0360986011692148
 31
0.0
1001
GRADIENTCOLOR1ACI
1070
     5
1001
GRADIENTCOLOR2ACI
1070
     2
1001
ACAD
1010
0.0
1020
0.0
1030
0.0
  0
LINE
  5
30D
  8
_0-1_
  6
CONTINUOUS
 62
     4
 10
27942.3181456885904481
 20
24139.0360986011583009
 30
0.0
 11
27942.3181456885904481
 21
26239.0360986011583009
 31
0.0
1001
GRADIENTCOLOR1ACI
1070
     5
1001
GRADIENTCOLOR2ACI
1070
     2
1001
ACAD
1010
0.0
1020
0.0
1030
0.0
  0
LINE
  5
30E
  8
_0-1_
  6
CONTINUOUS
 62
     4
 10
28004.8181456885904481
 20
19700.0
 30
0.0
 11
28004.8181456885904481
 21
22839.0360986011692148
 31
0.0
1001
GRADIENTCOLOR1ACI
1070
     5
1001
GRADIENTCOLOR2ACI
1070
     2
1001
ACAD
1010
0.0
1020
0.0
1030
0.0
  0
LINE
  5
30F
  8
_0-1_
  6
CONTINUOUS
 62
     4
 10
28004.8181456885904481
 20
24139.0360986011583009
 30
0.0
 11
28004.8181456885904481
 21
26239.0360986011583009
 31
0.0
1001
GRADIENTCOLOR1ACI
1070
     5
1001
GRADIENTCOLOR2ACI
1070
     2
1001
ACAD
1010
0.0
1020
0.0
1030
0.0
  0
LINE
  5
310
  8
_0-1_
  6
CONTINUOUS
 62
     4
 10
28067.3181456885795342
 20
19700.0
 30
0.0
 11
28067.3181456885904481
 21
22839.0360986011692148
 31
0.0
1001
GRADIENTCOLOR1ACI
1070
     5
1001
GRADIENTCOLOR2ACI
1070
     2
1001
ACAD
1010
0.0
1020
0.0
1030
0.0
  0
LINE
  5
311
  8
_0-1_
  6
CONTINUOUS
 62
     4
 10
28067.3181456885904481
 20
24139.0360986011583009
 30
0.0
 11
28067.3181456885904481
 21
26239.0360986011583009
 31
0.0
1001
GRADIENTCOLOR1ACI
1070
     5
1001
GRADIENTCOLOR2ACI
1070
     2
1001
ACAD
1010
0.0
1020
0.0
1030
0.0
  0
LINE
  5
312
  8
_0-1_
  6
CONTINUOUS
 62
     4
 10
28129.8181456885795342
 20
19700.0
 30
0.0
 11
28129.8181456885904481
 21
22839.0360986011692148
 31
0.0
1001
GRADIENTCOLOR1ACI
1070
     5
1001
GRADIENTCOLOR2ACI
1070
     2
1001
ACAD
1010
0.0
1020
0.0
1030
0.0
  0
LINE
  5
313
  8
_0-1_
  6
CONTINUOUS
 62
     4
 10
28129.8181456885904481
 20
24139.0360986011583009
 30
0.0
 11
28129.8181456885904481
 21
26239.0360986011583009
 31
0.0
1001
GRADIENTCOLOR1ACI
1070
     5
1001
GRADIENTCOLOR2ACI
1070
     2
1001
ACAD
1010
0.0
1020
0.0
1030
0.0
  0
LINE
  5
314
  8
_0-1_
  6
CONTINUOUS
 62
     4
 10
28188.7202042779717885
 20
24139.0360986011583009
 30
0.0
 11
28188.7202042779717885
 21
26239.0360986011583009
 31
0.0
  0
LINE
  5
315
  8
_0-1_
  6
CONTINUOUS
 62
     4
 10
28188.7202042779717885
 20
26239.0360986011583009
 30
0.0
 11
30288.7202042779717885
 21
24139.0360986011583009
 31
0.0
  0
LINE
  5
316
  8
_0-1_
  6
CONTINUOUS
 62
     4
 10
30288.7202042779717885
 20
26239.0360986011583009
 30
0.0
 11
28188.7202042779717885
 21
24139.0360986011583009
 31
0.0
  0
LINE
  5
318
  8
_0-1_
  6
CONTINUOUS
 62
     4
 10
27938.7202042779717885
 20
26239.0360986011583009
 30
0.0
 11
27938.7202042779717885
 21
19700.0
 31
0.0
  0
LINE
  5
319
  8
_0-1_
  6
CONTINUOUS
 62
     4
 10
28188.7202042779717885
 20
22839.0360986011692148
 30
0.0
 11
28188.7202042779717885
 21
19700.0
 31
0.0
  0
LINE
  5
31A
  8
_0-5_
  6
CONTINUOUS
 10
27578.7202042779717885
 20
26239.0360986011583009
 30
0.0
 11
26998.7202042779717885
 21
26239.0360986011583009
 31
0.0
  0
LINE
  5
31B
  8
_0-5_
  6
CONTINUOUS
 10
26998.7202042779717885
 20
26239.0360986011583009
 30
0.0
 11
26998.7202042779717885
 21
25659.0360986011692148
 31
0.0
  0
LINE
  5
31C
  8
_0-5_
  6
CONTINUOUS
 10
26998.7202042779717885
 20
25659.0360986011692148
 30
0.0
 11
27278.7202042779717885
 21
25659.0360986011692148
 31
0.0
  0
LINE
  5
31E
  8
_0-5_
  6
CONTINUOUS
 10
27278.7202042779717885
 20
25659.0360986011692148
 30
0.0
 11
27278.7202042779717885
 21
25959.0360986011583009
 31
0.0
  0
LINE
  5
31F
  8
0
  6
CONTINUOUS
 10
27278.7202042779717885
 20
25959.0360986011583009
 30
0.0
 11
27578.7202042779717885
 21
25959.0360986011583009
 31
0.0
  0
LINE
  5
320
  8
_0-5_
  6
CONTINUOUS
 10
27578.7202042779717885
 20
25959.0360986011583009
 30
0.0
 11
27578.7202042779717885
 21
26239.0360986011583009
 31
0.0
  0
LINE
  5
321
  8
_0-5_
  6
CONTINUOUS
 10
27578.7202042779717885
 20
26169.0360986011692148
 30
0.0
 11
27068.7202042779717885
 21
26169.0360986011692148
 31
0.0
  0
LINE
  5
322
  8
_0-5_
  6
CONTINUOUS
 10
27278.7202042779717885
 20
25959.0360986011583009
 30
0.0
 11
27278.7202042779717885
 21
26169.0360986011692148
 31
0.0
  0
LINE
  5
323
  8
_0-5_
  6
CONTINUOUS
 10
27578.7202042779717885
 20
26099.0360986011692148
 30
0.0
 11
27278.7202042779717885
 21
26099.0360986011692148
 31
0.0
  0
LINE
  5
324
  8
_0-5_
  6
CONTINUOUS
 10
27578.7202042779717885
 20
26029.0360986011692148
 30
0.0
 11
27278.7202042779717885
 21
26029.0360986011692148
 31
0.0
  0
LINE
  5
325
  8
_0-5_
  6
CONTINUOUS
 10
27278.7202042779717885
 20
25959.0360986011583009
 30
0.0
 11
27068.7202042779717885
 21
25959.0360986011583009
 31
0.0
  0
LINE
  5
326
  8
_0-5_
  6
CONTINUOUS
 10
27138.7202042779717885
 20
25659.0360986011692148
 30
0.0
 11
27138.7202042779717885
 21
25959.0360986011583009
 31
0.0
  0
LINE
  5
327
  8
_0-5_
  6
CONTINUOUS
 10
27208.7202042779717885
 20
25659.0360986011692148
 30
0.0
 11
27208.7202042779717885
 21
25959.0360986011583009
 31
0.0
  0
LINE
  5
328
  8
_0-5_
  6
CONTINUOUS
 10
27068.7202042779717885
 20
25659.0360986011692148
 30
0.0
 11
27068.7202042779717885
 21
26169.0360986011692148
 31
0.0
  0
LINE
  5
329
  8
_0-5_
  6
CONTINUOUS
 10
27278.7202042779717885
 20
25899.0360986011692148
 30
0.0
 11
27208.7202042779717885
 21
25899.0360986011692148
 31
0.0
  0
LINE
  5
32A
  8
_0-5_
  6
CONTINUOUS
 10
27208.7202042779717885
 20
25779.0360986011692148
 30
0.0
 11
27278.7202042779717885
 21
25779.0360986011692148
 31
0.0
  0
LINE
  5
32B
  8
_0-5_
  6
CONTINUOUS
 10
27208.7202042779717885
 20
25719.0360986011692148
 30
0.0
 11
27278.7202042779717885
 21
25719.0360986011692148
 31
0.0
  0
LINE
  5
32C
  8
_0-5_
  6
CONTINUOUS
 10
27208.7202042779717885
 20
25839.0360986011583009
 30
0.0
 11
27138.7202042779717885
 21
25839.0360986011583009
 31
0.0
  0
LINE
  5
32D
  8
_0-5_
  6
CONTINUOUS
 10
27208.7202042779717885
 20
25809.0360986011692148
 30
0.0
 11
27138.7202042779717885
 21
25809.0360986011692148
 31
0.0
  0
LINE
  5
32E
  8
_0-5_
  6
CONTINUOUS
 10
27138.7202042779717885
 20
25749.0360986011692148
 30
0.0
 11
27208.7202042779717885
 21
25749.0360986011692148
 31
0.0
  0
LINE
  5
32F
  8
_0-5_
  6
CONTINUOUS
 10
27138.7202042779717885
 20
25689.0360986011692148
 30
0.0
 11
27208.7202042779717885
 21
25689.0360986011692148
 31
0.0
  0
LINE
  5
330
  8
_0-5_
  6
CONTINUOUS
 10
27138.7202042779717885
 20
25919.0360986011583009
 30
0.0
 11
27068.7202042779717885
 21
25919.0360986011583009
 31
0.0
  0
LINE
  5
331
  8
_0-5_
  6
CONTINUOUS
 10
27068.7202042779717885
 20
25859.0360986011692148
 30
0.0
 11
27138.7202042779717885
 21
25859.0360986011692148
 31
0.0
  0
LINE
  5
332
  8
_0-5_
  6
CONTINUOUS
 10
27068.7202042779717885
 20
25779.0360986011692148
 30
0.0
 11
27138.7202042779717885
 21
25779.0360986011692148
 31
0.0
  0
LINE
  5
333
  8
_0-5_
  6
CONTINUOUS
 10
27068.7202042779717885
 20
25719.0360986011692148
 30
0.0
 11
27138.7202042779717885
 21
25719.0360986011692148
 31
0.0
  0
LINE
  5
334
  8
_0-5_
  6
CONTINUOUS
 10
27208.7202042779717885
 20
25939.0360986011692148
 30
0.0
 11
27138.7202042779717885
 21
25939.0360986011692148
 31
0.0
  0
LINE
  5
335
  8
_0-5_
  6
CONTINUOUS
 10
26998.7202042779717885
 20
25879.0360986011583009
 30
0.0
 11
27068.7202042779717885
 21
25879.0360986011583009
 31
0.0
  0
LINE
  5
336
  8
_0-5_
  6
CONTINUOUS
 10
26998.7202042779717885
 20
25839.0360986011583009
 30
0.0
 11
27068.7202042779717885
 21
25839.0360986011583009
 31
0.0
  0
LINE
  5
337
  8
_0-5_
  6
CONTINUOUS
 10
26998.7202042779717885
 20
25759.0360986011583009
 30
0.0
 11
27068.7202042779717885
 21
25759.0360986011583009
 31
0.0
  0
LINE
  5
338
  8
_0-5_
  6
CONTINUOUS
 10
26998.7202042779717885
 20
25699.0360986011692148
 30
0.0
 11
27068.7202042779717885
 21
25699.0360986011692148
 31
0.0
  0
LINE
  5
339
  8
_0-5_
  6
CONTINUOUS
 10
27518.7202042779717885
 20
25959.0360986011583009
 30
0.0
 11
27518.7202042779717885
 21
26029.0360986011692148
 31
0.0
  0
LINE
  5
33A
  8
_0-5_
  6
CONTINUOUS
 10
27398.7202042779717885
 20
26029.0360986011692148
 30
0.0
 11
27398.7202042779717885
 21
25959.0360986011583009
 31
0.0
  0
LINE
  5
33B
  8
_0-5_
  6
CONTINUOUS
 10
27338.7202042779717885
 20
26029.0360986011692148
 30
0.0
 11
27338.7202042779717885
 21
25959.0360986011583009
 31
0.0
  0
LINE
  5
33C
  8
_0-5_
  6
CONTINUOUS
 10
27458.7202042779717885
 20
26029.0360986011692148
 30
0.0
 11
27458.7202042779717885
 21
26099.0360986011692148
 31
0.0
  0
LINE
  5
33D
  8
_0-5_
  6
CONTINUOUS
 10
27428.7202042779717885
 20
26029.0360986011692148
 30
0.0
 11
27428.7202042779717885
 21
26099.0360986011692148
 31
0.0
  0
LINE
  5
33E
  8
_0-5_
  6
CONTINUOUS
 10
27368.7202042779717885
 20
26099.0360986011692148
 30
0.0
 11
27368.7202042779717885
 21
26029.0360986011692148
 31
0.0
  0
LINE
  5
33F
  8
_0-5_
  6
CONTINUOUS
 10
27308.7202042779717885
 20
26099.0360986011692148
 30
0.0
 11
27308.7202042779717885
 21
26029.0360986011692148
 31
0.0
  0
LINE
  5
340
  8
_0-5_
  6
CONTINUOUS
 10
27538.7202042779717885
 20
26099.0360986011692148
 30
0.0
 11
27538.7202042779717885
 21
26169.0360986011692148
 31
0.0
  0
LINE
  5
341
  8
_0-5_
  6
CONTINUOUS
 10
27478.7202042779717885
 20
26169.0360986011692148
 30
0.0
 11
27478.7202042779717885
 21
26099.0360986011692148
 31
0.0
  0
LINE
  5
342
  8
_0-5_
  6
CONTINUOUS
 10
27398.7202042779717885
 20
26169.0360986011692148
 30
0.0
 11
27398.7202042779717885
 21
26099.0360986011692148
 31
0.0
  0
LINE
  5
343
  8
_0-5_
  6
CONTINUOUS
 10
27338.7202042779717885
 20
26169.0360986011692148
 30
0.0
 11
27338.7202042779717885
 21
26099.0360986011692148
 31
0.0
  0
LINE
  5
344
  8
_0-5_
  6
CONTINUOUS
 10
27558.7202042779717885
 20
26029.0360986011692148
 30
0.0
 11
27558.7202042779717885
 21
26099.0360986011692148
 31
0.0
  0
LINE
  5
345
  8
_0-5_
  6
CONTINUOUS
 10
27498.7202042779717885
 20
26239.0360986011583009
 30
0.0
 11
27498.7202042779717885
 21
26169.0360986011692148
 31
0.0
  0
LINE
  5
346
  8
_0-5_
  6
CONTINUOUS
 10
27458.7202042779717885
 20
26239.0360986011583009
 30
0.0
 11
27458.7202042779717885
 21
26169.0360986011692148
 31
0.0
  0
LINE
  5
347
  8
_0-5_
  6
CONTINUOUS
 10
27378.7202042779717885
 20
26239.0360986011583009
 30
0.0
 11
27378.7202042779717885
 21
26169.0360986011692148
 31
0.0
  0
LINE
  5
348
  8
_0-5_
  6
CONTINUOUS
 10
27318.7202042779717885
 20
26239.0360986011583009
 30
0.0
 11
27318.7202042779717885
 21
26169.0360986011692148
 31
0.0
  0
LINE
  5
349
  8
_0-5_
  6
CONTINUOUS
 10
27068.7202042779717885
 20
26169.0360986011692148
 30
0.0
 11
26998.7202042779717885
 21
26239.0360986011583009
 31
0.0
  0
LINE
  5
34B
  8
_0-1_
  6
CONTINUOUS
 62
     4
 10
27578.7202042779717885
 20
25959.0360986011583009
 30
0.0
 11
27578.7202042779717885
 21
19700.0
 31
0.0
  0
LINE
  5
34C
  8
0
  6
CONTINUOUS
 10
26998.7202042779717885
 20
26239.0360986011583009
 30
0.0
 11
26998.7202042779717885
 21
26539.0360986011692148
 31
0.0
  0
LINE
  5
34D
  8
_0-1_
  6
CONTINUOUS
 62
     4
 10
26998.7202042779717885
 20
26539.0360986011692148
 30
0.0
 11
31998.7202042779717885
 21
26539.0360986011692148
 31
0.0
  0
LINE
  5
34E
  8
_0-1_
  6
CONTINUOUS
 62
     4
 10
31998.7202042779717885
 20
26239.0360986011583009
 30
0.0
 11
30288.7202042779717885
 21
26239.0360986011583009
 31
0.0
  0
LINE
  5
34F
  8
_0-1_
  6
CONTINUOUS
 62
     4
 10
26998.7202042779717885
 20
26539.0360986011692148
 30
0.0
 11
26998.7202042779717885
 21
27019.0360986011692148
 31
0.0
  0
LINE
  5
350
  8
_0-1_
  6
CONTINUOUS
 62
     4
 10
26998.7202042779717885
 20
27019.0360986011692148
 30
0.0
 11
28198.7202042779717885
 21
27019.0360986011692148
 31
0.0
  0
LINE
  5
351
  8
_0-1_
  6
CONTINUOUS
 62
     4
 10
28198.7202042779717885
 20
27019.0360986011692148
 30
0.0
 11
28198.7202042779717885
 21
26539.0360986011692148
 31
0.0
  0
LINE
  5
352
  8
_0-1_
  6
CONTINUOUS
 62
     4
 10
28198.7202042779717885
 20
26539.0360986011692148
 30
0.0
 11
26998.7202042779717885
 21
27019.0360986011692148
 31
0.0
  0
LINE
  5
354
  8
_0-3_
  6
CONTINUOUS
 62
     2
 10
27278.7202042779717885
 20
25659.0360986011692148
 30
0.0
 11
27278.7202042779717885
 21
19700.0
 31
0.0
  0
LINE
  5
355
  8
_0-4_
  6
CONTINUOUS
 62
     3
 10
26938.7202042779717885
 20
25479.0360986011692148
 30
0.0
 11
26938.7202042779717885
 21
27059.0360986011692148
 31
0.0
  0
LINE
  5
356
  8
_0-4_
  6
CONTINUOUS
 62
     3
 10
26938.7202042779717885
 20
27059.0360986011692148
 30
0.0
 11
28498.7202042779717885
 21
27059.0360986011692148
 31
0.0
  0
LINE
  5
357
  8
_0-4_
  6
CONTINUOUS
 62
     3
 10
26938.7202042779717885
 20
25479.0360986011692148
 30
0.0
 11
26998.7202042779717885
 21
25479.0360986011692148
 31
0.0
  0
LINE
  5
358
  8
_0-4_
  6
CONTINUOUS
 62
     3
 10
26998.7202042779717885
 20
25479.0360986011692148
 30
0.0
 11
26998.7202042779717885
 21
25619.0360986011692148
 31
0.0
  0
LINE
  5
359
  8
_0-4_
  6
CONTINUOUS
 62
     3
 10
26998.7202042779717885
 20
25619.0360986011692148
 30
0.0
 11
26978.7202042779717885
 21
25619.0360986011692148
 31
0.0
  0
LINE
  5
35A
  8
_0-4_
  6
CONTINUOUS
 62
     3
 10
26978.7202042779717885
 20
25619.0360986011692148
 30
0.0
 11
26978.7202042779717885
 21
25499.0360986011692148
 31
0.0
  0
LINE
  5
35B
  8
_0-4_
  6
CONTINUOUS
 62
     3
 10
26978.7202042779717885
 20
25499.0360986011692148
 30
0.0
 11
26958.7202042779717885
 21
25499.0360986011692148
 31
0.0
  0
LINE
  5
35C
  8
_0-4_
  6
CONTINUOUS
 62
     3
 10
26958.7202042779717885
 20
25499.0360986011692148
 30
0.0
 11
26958.7202042779717885
 21
27039.0360986011692148
 31
0.0
  0
LINE
  5
35D
  8
_0-4_
  6
CONTINUOUS
 62
     3
 10
26958.7202042779717885
 20
27039.0360986011692148
 30
0.0
 11
28218.7202042779717885
 21
27039.0360986011692148
 31
0.0
  0
LINE
  5
35E
  8
_0-4_
  6
CONTINUOUS
 62
     3
 10
28498.7202042779717885
 20
27059.0360986011692148
 30
0.0
 11
28498.7202042779717885
 21
27039.0360986011692148
 31
0.0
  0
LINE
  5
35F
  8
_0-4_
  6
CONTINUOUS
 62
     3
 10
28498.7202042779717885
 20
27039.0360986011692148
 30
0.0
 11
28238.7202042779717885
 21
27039.0360986011692148
 31
0.0
  0
LINE
  5
360
  8
_0-4_
  6
CONTINUOUS
 62
     3
 10
28238.7202042779717885
 20
27039.0360986011692148
 30
0.0
 11
28238.7202042779717885
 21
26539.0360986011692148
 31
0.0
  0
LINE
  5
361
  8
_0-4_
  6
CONTINUOUS
 62
     3
 10
28218.7202042779717885
 20
27039.0360986011692148
 30
0.0
 11
28218.7202042779717885
 21
26539.0360986011692148
 31
0.0
  0
LINE
  5
367
  8
_0-5_
  6
CONTINUOUS
 10
27068.7201788677011791
 20
26029.0361096335000184
 30
0.0
 11
26998.7201788677011791
 21
26029.0361096335000184
 31
0.0
  0
LINE
  5
368
  8
_0-5_
  6
CONTINUOUS
 10
27068.7201788677011791
 20
25999.0361096334891045
 30
0.0
 11
26998.7201788677011791
 21
25999.0361096334891045
 31
0.0
  0
LINE
  5
369
  8
_0-5_
  6
CONTINUOUS
 10
26998.7201788677011791
 20
25939.0361096335000184
 30
0.0
 11
27068.7201788677011791
 21
25939.0361096335000184
 31
0.0
  0
LINE
  5
36A
  8
_0-5_
  6
CONTINUOUS
 10
27068.7201788677011791
 20
26129.0361096335000184
 30
0.0
 11
26998.7201788677011791
 21
26129.0361096335000184
 31
0.0
  0
LINE
  5
36B
  8
_0-5_
  6
CONTINUOUS
 10
27218.720265710959211
 20
26169.0361076701010461
 30
0.0
 11
27218.720265710959211
 21
26239.0361076700901322
 31
0.0
  0
LINE
  5
36C
  8
_0-5_
  6
CONTINUOUS
 10
27188.720265710959211
 20
26169.0361076701010461
 30
0.0
 11
27188.720265710959211
 21
26239.0361076700901322
 31
0.0
  0
LINE
  5
36D
  8
_0-5_
  6
CONTINUOUS
 10
27128.720265710959211
 20
26239.0361076700901322
 30
0.0
 11
27128.720265710959211
 21
26169.0361076701010461
 31
0.0
  0
LINE
  5
36E
  8
_0-5_
  6
CONTINUOUS
 10
27068.720265710959211
 20
26239.0361076700901322
 30
0.0
 11
27068.720265710959211
 21
26169.0361076701010461
 31
0.0
  0
LINE
  5
36F
  8
ﾚｲﾔ1
 10
27898.7202042779717885
 20
22775.7027586011499807
 30
0.0
 11
27938.7202042779717885
 21
22775.7027586011499807
 31
0.0
  0
LINE
  5
370
  8
ﾚｲﾔ1
 10
27898.7202042779717885
 20
22775.7027586011499807
 30
0.0
 11
27898.7202042779717885
 21
24202.3694386011193274
 31
0.0
  0
LINE
  5
371
  8
ﾚｲﾔ1
 10
27898.7202042779717885
 20
24202.3694386011193274
 30
0.0
 11
27938.7202042779717885
 21
24202.3694386011193274
 31
0.0
  0
ARC
  5
372
  8
ﾚｲﾔ1
 10
28725.3868842779702391
 20
24132.3694386011193274
 30
0.0
 40
6.6666600000000003
 50
0.0
 51
90.0
  0
LINE
  5
373
  8
ﾚｲﾔ1
 10
28732.0535442779691948
 20
24132.3694386011193274
 30
0.0
 11
28732.0535442779691948
 21
22845.7027586011608946
 31
0.0
  0
ARC
  5
374
  8
ﾚｲﾔ1
 10
28725.3868842779702391
 20
22845.7027586011608946
 30
0.0
 40
6.6666600000000003
 50
270.0
 51
0.0
  0
LINE
  5
375
  8
ﾚｲﾔ1
 10
27938.7202042779717885
 20
22839.0360986011692148
 30
0.0
 11
28725.3868842779702391
 21
22839.0360986011692148
 31
0.0
  0
LINE
  5
376
  8
ﾚｲﾔ1
 10
27938.7202042779717885
 20
24139.0360986011583009
 30
0.0
 11
28725.3868842779702391
 21
24139.0360986011583009
 31
0.0
  0
LINE
  5
377
  8
ﾚｲﾔ9
 62
     0
 10
27938.7202042779717885
 20
24115.7027586011499807
 30
0.0
 11
28732.0535442779691948
 21
24115.7027586011499807
 31
0.0
  0
LINE
  5
378
  8
ﾚｲﾔ9
 62
     0
 10
27938.7202042779717885
 20
22862.3694386011193274
 30
0.0
 11
28708.7135442779690493
 21
22862.3694386011193274
 31
0.0
  0
LINE
  5
379
  8
_0-0_
  6
CONTINUOUS
 62
     7
 10
27938.7202042779717885
 20
22775.7027586011499807
 30
0.0
 11
27938.7202042779717885
 21
24202.3694386011193274
 31
0.0
  0
LINE
  5
37A
  8
ﾚｲﾔ9
 62
     0
 10
28708.7135442779690493
 20
22862.3694386011193274
 30
0.0
 11
28708.7135442779690493
 21
23262.3694386011193274
 31
0.0
  0
LINE
  5
37B
  8
ﾚｲﾔ9
  6
CONTINUOUS
 62
     0
 10
28708.7135442779690493
 20
23262.3694386011193274
 30
0.0
 11
28732.0535442779691948
 21
23262.3694386011193274
 31
0.0
  0
LINE
  5
706
  8
_0-4_
 62
     3
 10
10498.049264698929619
 20
26564.6855916904496553
 30
0.0
 11
14958.0492646990405774
 21
26425.9300361348687147
 31
0.0
  0
LINE
  5
707
  8
_0-4_
 62
     3
 10
10498.6711860147806874
 20
26584.6759196987004543
 30
0.0
 11
14958.6711860147806874
 21
26445.9203641431195138
 31
0.0
  0
LINE
  5
709
  8
_0-4_
 62
     3
 10
10498.049264698929619
 20
25405.3174905840714928
 30
0.0
 11
10658.049264698929619
 21
25405.3174905840714928
 31
0.0
  0
LINE
  5
70A
  8
_0-4_
 62
     3
 10
10498.049264698929619
 20
25425.3174905840714928
 30
0.0
 11
10658.049264698929619
 21
25425.3174905840714928
 31
0.0
  0
LINE
  5
70B
  8
_0-4_
 62
     3
 10
10478.049264698929619
 20
26564.6855916904496553
 30
0.0
 11
10478.049264698929619
 21
25425.3174905840714928
 31
0.0
  0
LINE
  5
70C
  8
_0-4_
 62
     3
 10
10498.049264698929619
 20
26564.6855916904496553
 30
0.0
 11
10498.049264698929619
 21
25425.3174905840714928
 31
0.0
  0
ARC
  5
70D
  8
_0-4_
 62
     3
 10
10498.049264698929619
 20
25425.3174905840714928
 30
0.0
 40
20.0
 50
180.0
 51
270.0
  0
ARC
  5
70E
  8
_0-4_
 62
     3
 10
10498.049264698929619
 20
26564.6855916904496553
 30
0.0
 40
20.0
 50
88.218039409613084
 51
180.0
  0
LINE
  5
70F
  8
_0-4_
 62
     3
 10
10658.049264698929619
 20
25405.3174905840714928
 30
0.0
 11
10658.049264698929619
 21
25425.3174905840714928
 31
0.0
  0
LINE
  5
710
  8
_0-1_
 62
     4
 10
11318.049264698929619
 20
26175.3174905840714928
 30
0.0
 11
14138.049264698929619
 21
26175.3174905841005966
 31
0.0
  0
LINE
  5
711
  8
_0-4_
 62
     3
 10
14978.049264698929619
 20
25425.3174905840714928
 30
0.0
 11
14978.049264698929619
 21
26425.9300361349014565
 31
0.0
  0
LINE
  5
712
  8
_0-4_
 62
     3
 10
14958.0492646989896457
 20
25425.3174905840714928
 30
0.0
 11
14958.0492646990405774
 21
26425.9300361348687147
 31
0.0
  0
LINE
  5
713
  8
_0-4_
 62
     3
 10
14798.0492646989896457
 20
25405.3174905840714928
 30
0.0
 11
14958.0492646989896457
 21
25405.3174905840714928
 31
0.0
  0
LINE
  5
714
  8
_0-4_
 62
     3
 10
14798.0492646989896457
 20
25425.3174905840714928
 30
0.0
 11
14798.0492646989896457
 21
25405.3174905840714928
 31
0.0
  0
LINE
  5
715
  8
_0-4_
 62
     3
 10
14798.0492646989896457
 20
25425.3174905840714928
 30
0.0
 11
14958.0492646989896457
 21
25425.3174905840714928
 31
0.0
  0
ARC
  5
716
  8
_0-4_
 62
     3
 10
14958.0492646989896457
 20
25425.3174905840714928
 30
0.0
 40
20.0
 50
270.0
 51
0.0
  0
ARC
  5
717
  8
_0-4_
 62
     3
 10
14958.0492646989896457
 20
26425.9300361349014565
 30
0.0
 40
20.0
 50
0.0
 51
88.218039409613084
  0
LINE
  5
718
  8
_0-3_
 62
     2
 10
10512.049264698929619
 20
25524.7293705840711482
 30
0.0
 11
10512.049264698929619
 21
25455.3174905840714928
 31
0.0
  0
LINE
  5
719
  8
_0-3_
 62
     2
 10
10512.1634646989405155
 20
25525.8944105841001146
 30
0.0
 11
10704.0492646989896457
 21
26495.3174905840714928
 31
0.0
  0
LINE
  5
71A
  8
_0-3_
 62
     2
 10
10734.8808046989706781
 20
26290.5738505840708967
 30
0.0
 11
10582.1634646989405155
 21
25519.0331305840809364
 31
0.0
  0
LINE
  5
71B
  8
_0-3_
 62
     2
 10
10944.0492646989805507
 20
26315.3174905840714928
 30
0.0
 11
10944.0492646989805507
 21
26487.3174905840714928
 31
0.0
  0
LINE
  5
71C
  8
_0-3_
 62
     2
 10
10858.7323846989893354
 20
26471.2221705840784125
 30
0.0
 11
10858.9322646989603527
 21
26477.2188505840895232
 31
0.0
  0
LINE
  5
71D
  8
_0-3_
 62
     2
 10
10790.7701246989890933
 20
26473.4875905840890482
 30
0.0
 11
10790.9700046989601105
 21
26479.4842505840715603
 31
0.0
  0
LINE
  5
71E
  8
_0-3_
 62
     2
 10
10872.2845046989405091
 20
26489.7096505840891041
 30
0.0
 11
10858.9322646989603527
 21
26477.2188505840895232
 31
0.0
  0
LINE
  5
71F
  8
_0-3_
 62
     2
 10
10790.9700046989601105
 20
26479.4842505840715603
 30
0.0
 11
10778.4792246989600244
 21
26492.8364905841008294
 31
0.0
  0
LINE
  5
720
  8
_0-3_
 62
     2
 10
10944.0492646989805507
 20
26487.3174905840714928
 30
0.0
 11
10872.2845046989405091
 21
26489.7096505840891041
 31
0.0
  0
LINE
  5
721
  8
_0-3_
 62
     2
 10
10778.4792246989600244
 20
26492.8364905841008294
 30
0.0
 11
10704.0492646989896457
 21
26495.3174905840714928
 31
0.0
  0
ARC
  5
722
  8
_0-3_
 62
     2
 10
10824.0492646989896457
 20
26451.2952705840907583
 30
0.0
 40
40.0
 50
146.3025170000485957
 51
29.8791779999923115
  0
LINE
  5
723
  8
_0-3_
 62
     2
 10
10582.049264698929619
 20
25517.8681105840587406
 30
0.0
 11
10582.049264698929619
 21
25431.3174905840714928
 31
0.0
  0
LINE
  5
724
  8
_0-3_
 62
     2
 10
10576.0492646989896457
 20
25425.3174905840714928
 30
0.0
 11
10542.0492646989896457
 21
25425.3174905840714928
 31
0.0
  0
ARC
  5
725
  8
_0-3_
 62
     2
 10
10542.0492646989896457
 20
25455.3174905840714928
 30
0.0
 40
30.0
 50
180.0
 51
270.0
  0
ARC
  5
726
  8
_0-3_
 62
     2
 10
10576.0492646989896457
 20
25431.3174905840714928
 30
0.0
 40
6.0
 50
270.0
 51
0.0
  0
LINE
  5
727
  8
_0-3_
 62
     2
 10
10944.0492646989805507
 20
26195.3174905840714928
 30
0.0
 11
14704.3191846989793703
 21
26195.3174905840714928
 31
0.0
  0
LINE
  5
728
  8
_0-3_
 62
     2
 10
10864.0492646989805507
 20
26275.3174905840714928
 30
0.0
 11
10864.0492646989805507
 21
26277.9129705840896349
 31
0.0
  0
ARC
  5
729
  8
_0-3_
 62
     2
 10
10944.0492646989805507
 20
26275.3174905840714928
 30
0.0
 40
80.0
 50
180.0
 51
270.0
  0
ARC
  5
72A
  8
_0-3_
 62
     2
 10
10798.8445246989103907
 20
26277.9129705840896349
 30
0.0
 40
65.204740000000001
 50
0.0
 51
168.8037040000347986
  0
LINE
  5
72B
  8
_0-3_
 62
     2
 10
10944.0492646989805507
 20
26315.3174905840714928
 30
0.0
 11
12722.0492646989896457
 21
26315.3174905840714928
 31
0.0
  0
LINE
  5
72C
  8
_0-3_
 62
     2
 10
12734.0492646989896457
 20
26315.3174905840714928
 30
0.0
 11
14534.0492646989896457
 21
26315.3174905840714928
 31
0.0
  0
LINE
  5
72D
  8
_0-3_
 62
     2
 10
12734.0492646989896457
 20
26315.3174905840714928
 30
0.0
 11
12728.049264698929619
 21
26309.3174905840714928
 31
0.0
  0
LINE
  5
72E
  8
_0-3_
 62
     2
 10
12722.0492646989896457
 20
26315.3174905840714928
 30
0.0
 11
12728.049264698929619
 21
26309.3174905840714928
 31
0.0
  0
LINE
  5
72F
  8
_0-3_
 62
     2
 10
12212.049264698929619
 20
26315.3174905840714928
 30
0.0
 11
12212.049264698929619
 21
26195.3174905840714928
 31
0.0
  0
LINE
  5
730
  8
_0-3_
 62
     2
 10
11412.049264698929619
 20
26315.3174905840714928
 30
0.0
 11
11412.049264698929619
 21
26195.3174905840714928
 31
0.0
  0
LINE
  5
731
  8
0
 10
10709.9933046989608556
 20
26517.3240705840908049
 30
0.0
 11
10760.6200246989592415
 21
26564.6845505840610713
 31
0.0
  0
ARC
  5
732
  8
0
 10
10718.8743446989701624
 20
26507.8305305840585788
 30
0.0
 40
13.0
 50
133.0908480000541942
 51
313.0908480000542795
  0
LINE
  5
733
  8
0
 10
10763.6298846989502636
 20
26531.8970305840812216
 30
0.0
 11
10727.7553846989703743
 21
26498.3370105840695032
 31
0.0
  0
ARC
  5
734
  8
0
 10
10770.4614646989502944
 20
26524.5943105840706266
 30
0.0
 40
10.0
 50
358.0908479999762903
 51
133.0908480000541942
  0
LINE
  5
735
  8
0
 10
10780.4559046989306808
 20
26524.2611705840718059
 30
0.0
 11
10779.4073846989795129
 21
26492.8055505840784463
 31
0.0
  0
LINE
  5
736
  8
0
 10
10809.0575846989504498
 20
26481.8116505840698665
 30
0.0
 11
10789.0686846989501646
 21
26482.4779505840815546
 31
0.0
  0
LINE
  5
737
  8
0
 10
10807.6583646989292902
 20
26439.8349705840482784
 30
0.0
 11
10809.0575846989504498
 21
26481.8116505840698665
 31
0.0
  0
ARC
  5
738
  8
0
 10
10824.0492646989896457
 20
26451.2952705840907583
 30
0.0
 40
20.0
 50
167.8425610000219876
 51
214.9607420000180866
  0
ARC
  5
739
  8
0
 10
10794.722084698960316
 20
26457.6132305840692425
 30
0.0
 40
10.0
 50
347.842561000021874
 51
167.8425610000219876
  0
ARC
  5
73A
  8
0
 10
10781.1147446989798482
 20
26542.7764105840797129
 30
0.0
 40
30.0
 50
11.6281009998707301
 51
133.0908480000541942
  0
LINE
  5
73B
  8
0
 10
10810.4990446989504562
 20
26548.8231505840703903
 30
0.0
 11
10816.5865446989791963
 21
26519.2408305840508547
 31
0.0
  0
ARC
  5
73C
  8
0
 10
10826.3813046989907889
 20
26521.2564105840610864
 30
0.0
 40
10.0
 50
191.6281009998706963
 51
344.5535949999853074
  0
LINE
  5
73D
  8
0
 10
10844.0640646989904781
 20
26547.7043305840597895
 30
0.0
 11
10836.0201046989495808
 21
26518.5930505840515252
 31
0.0
  0
ARC
  5
73E
  8
0
 10
10872.9804646989796311
 20
26539.7142105840612203
 30
0.0
 40
30.0
 50
43.0908479999753311
 51
164.5535949999853074
  0
LINE
  5
73F
  8
0
 10
10942.2490846989603597
 20
26509.5822105841107259
 30
0.0
 11
10894.8886046989300667
 21
26560.2089305841109308
 31
0.0
  0
ARC
  5
740
  8
0
 10
10932.7555446989699703
 20
26500.7011705840704963
 30
0.0
 40
13.0
 50
223.0908479999752956
 51
43.0908479999753311
  0
LINE
  5
741
  8
0
 10
10889.7020046989200637
 20
26527.6946305841011053
 30
0.0
 11
10923.2620246989499719
 21
26491.8201305840593704
 31
0.0
  0
ARC
  5
742
  8
0
 10
10882.3992846990004182
 20
26520.8630505840992555
 30
0.0
 40
10.0
 50
43.0908479999753311
 51
178.0908479999762903
  0
LINE
  5
743
  8
0
 10
10872.4048446988999785
 20
26521.1962105840502772
 30
0.0
 11
10871.3563246989506297
 21
26489.7405905840896594
 31
0.0
  0
LINE
  5
744
  8
0
 10
10841.0398246989298059
 20
26480.745590584090678
 30
0.0
 11
10861.0287246989300911
 21
26480.0792905840789899
 31
0.0
  0
LINE
  5
745
  8
0
 10
10839.6406046989104652
 20
26438.7688905840914231
 30
0.0
 11
10841.0398246989298059
 21
26480.745590584090678
 31
0.0
  0
ARC
  5
746
  8
0
 10
10824.0492646989896457
 20
26451.2952705840907583
 30
0.0
 40
20.0
 50
321.2209470000332772
 51
9.117859000006268
  0
ARC
  5
747
  8
0
 10
10853.6702046989794326
 20
26456.0492505840702506
 30
0.0
 40
10.0
 50
9.117859000006268
 51
189.1178550000288965
  0
LINE
  5
748
  8
_0-3_
 62
     2
 10
14914.0492646989896457
 20
25425.3174905840714928
 30
0.0
 11
14880.049264698929619
 21
25425.3174905840714928
 31
0.0
  0
LINE
  5
749
  8
_0-3_
 62
     2
 10
14944.0492646989896457
 20
25455.3174905840714928
 30
0.0
 11
14944.0492646989896457
 21
25524.7164305840815359
 31
0.0
  0
LINE
  5
74A
  8
_0-3_
 62
     2
 10
14943.9300446989291231
 20
25525.9065905840507185
 30
0.0
 11
14774.0492646989896457
 21
26365.3174905840714928
 31
0.0
  0
LINE
  5
74B
  8
_0-3_
 62
     2
 10
14743.5243446989297809
 20
26163.2518705840593611
 30
0.0
 11
14873.9300446989291231
 21
25518.8943505841016304
 31
0.0
  0
LINE
  5
74C
  8
_0-3_
 62
     2
 10
14874.0492646989805507
 20
25431.3174905840714928
 30
0.0
 11
14874.0492646989805507
 21
25517.704190584099706
 31
0.0
  0
LINE
  5
74D
  8
_0-3_
 62
     2
 10
14534.0492646989896457
 20
26373.3174905841005966
 30
0.0
 11
14534.0492646989896457
 21
26315.3174905840714928
 31
0.0
  0
ARC
  5
74E
  8
_0-3_
 62
     2
 10
14704.3191846989793703
 20
26155.3174905840714928
 30
0.0
 40
40.0
 50
11.4410439999261904
 51
90.0
  0
LINE
  5
74F
  8
_0-3_
 62
     2
 10
14688.7323846989893354
 20
26349.2221705840784125
 30
0.0
 11
14688.9322646989603527
 21
26355.2188505840604194
 31
0.0
  0
LINE
  5
750
  8
_0-3_
 62
     2
 10
14620.7701246989890933
 20
26351.4875905840890482
 30
0.0
 11
14620.9700046989601105
 21
26357.4842505840715603
 31
0.0
  0
LINE
  5
751
  8
_0-3_
 62
     2
 10
14702.2845046989405091
 20
26367.7096505840891041
 30
0.0
 11
14688.9322646989603527
 21
26355.2188505840604194
 31
0.0
  0
LINE
  5
752
  8
_0-3_
 62
     2
 10
14620.9700046989601105
 20
26357.4842505840715603
 30
0.0
 11
14608.4792246989600244
 21
26370.8364905841008294
 31
0.0
  0
LINE
  5
753
  8
_0-3_
 62
     2
 10
14774.0492646989896457
 20
26365.3174905840714928
 30
0.0
 11
14702.2845046989405091
 21
26367.7096505840891041
 31
0.0
  0
LINE
  5
754
  8
_0-3_
 62
     2
 10
14608.4792246989600244
 20
26370.8364905841008294
 30
0.0
 11
14534.0492646989896457
 21
26373.3174905841005966
 31
0.0
  0
ARC
  5
755
  8
_0-3_
 62
     2
 10
14654.0492646989896457
 20
26329.2952705840907583
 30
0.0
 40
40.0
 50
146.3025170000485957
 51
29.8791779999923115
  0
ARC
  5
756
  8
_0-3_
 62
     2
 10
14880.049264698929619
 20
25431.3174905840714928
 30
0.0
 40
6.0
 50
180.0
 51
270.0
  0
ARC
  5
757
  8
_0-3_
 62
     2
 10
14914.0492646989896457
 20
25455.3174905840714928
 30
0.0
 40
30.0
 50
270.0
 51
0.0
  0
LINE
  5
758
  8
0
 10
14539.9933046989608556
 20
26395.3240705840617011
 30
0.0
 11
14590.6200246989592415
 21
26442.6845505840610713
 31
0.0
  0
ARC
  5
759
  8
0
 10
14548.8743446989701624
 20
26385.8305305840585788
 30
0.0
 40
13.0
 50
133.0908480000541942
 51
313.0908480000542795
  0
LINE
  5
75A
  8
0
 10
14593.6298846989502636
 20
26409.8970305840812216
 30
0.0
 11
14557.7553846989703743
 21
26376.3370105840695032
 31
0.0
  0
ARC
  5
75B
  8
0
 10
14600.4614646989502944
 20
26402.5943105840706266
 30
0.0
 40
10.0
 50
358.0908479999762903
 51
133.0908480000541942
  0
LINE
  5
75C
  8
0
 10
14610.4559046989306808
 20
26402.2611705840718059
 30
0.0
 11
14609.4073846989795129
 21
26370.8055505840784463
 31
0.0
  0
LINE
  5
75D
  8
0
 10
14639.0575846989504498
 20
26359.8116505840698665
 30
0.0
 11
14619.0686846989501646
 21
26360.4779505840597267
 31
0.0
  0
LINE
  5
75E
  8
0
 10
14637.6583646989893168
 20
26317.8349705840810202
 30
0.0
 11
14639.0575846989504498
 21
26359.8116505840698665
 31
0.0
  0
ARC
  5
75F
  8
0
 10
14654.0492646989896457
 20
26329.2952705840907583
 30
0.0
 40
20.0
 50
167.8425610000219876
 51
214.9607420000180866
  0
ARC
  5
760
  8
0
 10
14624.722084698960316
 20
26335.6132305840692425
 30
0.0
 40
10.0
 50
347.842561000021874
 51
167.8425610000219876
  0
ARC
  5
761
  8
0
 10
14611.1147446989798482
 20
26420.7764105840797129
 30
0.0
 40
30.0
 50
11.6281009998707301
 51
133.0908480000541942
  0
LINE
  5
762
  8
0
 10
14640.4990446989504562
 20
26426.8231505840703903
 30
0.0
 11
14646.5865446989791963
 21
26397.2408305841090623
 31
0.0
  0
ARC
  5
763
  8
0
 10
14656.3813046989907889
 20
26399.2564105840610864
 30
0.0
 40
10.0
 50
191.6281009998706963
 51
344.5535949999853074
  0
LINE
  5
764
  8
0
 10
14674.0640646989904781
 20
26425.7043305840888934
 30
0.0
 11
14666.0201046989495808
 21
26396.5930505840515252
 31
0.0
  0
ARC
  5
765
  8
0
 10
14702.9804646989796311
 20
26417.7142105840612203
 30
0.0
 40
30.0
 50
43.0908479999753311
 51
164.5535949999853074
  0
LINE
  5
766
  8
0
 10
14772.2490846989694546
 20
26387.5822105840816221
 30
0.0
 11
14724.8886046989300667
 21
26438.208930584078189
 31
0.0
  0
ARC
  5
767
  8
0
 10
14762.7555446989699703
 20
26378.7011705840704963
 30
0.0
 40
13.0
 50
223.0908479999752956
 51
43.0908479999753311
  0
LINE
  5
768
  8
0
 10
14719.7020046989800903
 20
26405.6946305840683635
 30
0.0
 11
14753.2620246989499719
 21
26369.8201305840884743
 31
0.0
  0
ARC
  5
769
  8
0
 10
14712.3992846990004182
 20
26398.8630505840701517
 30
0.0
 40
10.0
 50
43.0908479999753311
 51
178.0908479999762903
  0
LINE
  5
76A
  8
0
 10
14702.4048446989600052
 20
26399.1962105841084849
 30
0.0
 11
14701.3563246989506297
 21
26367.7405905840896594
 31
0.0
  0
LINE
  5
76B
  8
0
 10
14671.0398246989298059
 20
26358.745590584090678
 30
0.0
 11
14691.0287246989901178
 21
26358.0792905840789899
 31
0.0
  0
LINE
  5
76C
  8
0
 10
14669.6406046989104652
 20
26316.7688905840695952
 30
0.0
 11
14671.0398246989298059
 21
26358.745590584090678
 31
0.0
  0
ARC
  5
76D
  8
0
 10
14654.0492646989896457
 20
26329.2952705840907583
 30
0.0
 40
20.0
 50
321.2209470000332772
 51
9.117859000006268
  0
ARC
  5
76E
  8
0
 10
14683.6702046989194059
 20
26334.0492505840702506
 30
0.0
 40
10.0
 50
9.117859000006268
 51
189.1178550000288965
  0
LINE
  5
76F
  8
_0-3_
 62
     2
 10
13244.0492646989896457
 20
26315.3174905840714928
 30
0.0
 11
13244.0492646989896457
 21
26195.3174905840714928
 31
0.0
  0
LINE
  5
770
  8
_0-3_
 62
     2
 10
14044.0492646989896457
 20
26315.3174905840714928
 30
0.0
 11
14044.0492646989896457
 21
26195.3174905840714928
 31
0.0
  0
LINE
  5
771
  8
0
 10
10779.4073846989795129
 20
26492.8055505840784463
 30
0.0
 11
10789.0686846989501646
 21
26482.4779505840815546
 31
0.0
  0
LINE
  5
772
  8
0
 10
10871.3563246989506297
 20
26489.7405905840896594
 30
0.0
 11
10861.0287246989300911
 21
26480.0792905840789899
 31
0.0
  0
LINE
  5
773
  8
0
 10
14609.4073846989795129
 20
26370.8055505840784463
 30
0.0
 11
14619.0686846989501646
 21
26360.4779505840597267
 31
0.0
  0
LINE
  5
774
  8
0
 10
14701.3563246989506297
 20
26367.7405905840896594
 30
0.0
 11
14691.0287246989901178
 21
26358.0792905840789899
 31
0.0
  0
LINE
  5
775
  8
_0-3_
 62
     2
 10
10512.1634646989405155
 20
25525.8944105841001146
 30
0.0
 11
10512.049264698929619
 21
25524.7293705840711482
 31
0.0
  0
LINE
  5
776
  8
0
 10
10582.1634646989405155
 20
25519.0331305840809364
 30
0.0
 11
10582.049264698929619
 21
25517.8681105840587406
 31
0.0
  0
LINE
  5
777
  8
_0-3_
 62
     2
 10
14873.9300446989291231
 20
25518.8943505841016304
 30
0.0
 11
14874.0492646989805507
 21
25517.704190584099706
 31
0.0
  0
LINE
  5
778
  8
_0-3_
 62
     2
 10
14943.9300446989291231
 20
25525.9065905840507185
 30
0.0
 11
14944.0492646989896457
 21
25524.7164305840815359
 31
0.0
  0
LINE
  5
77C
  8
0
 10
11968.049264698929619
 20
25830.8756994446412136
 30
0.0
 11
11968.049264698929619
 21
25714.5995136225610622
 31
0.0
  0
LINE
  5
77D
  8
0
 10
11868.049264698929619
 20
25830.8756994446412136
 30
0.0
 11
11868.049264698929619
 21
25714.5995136225610622
 31
0.0
  0
LINE
  5
77E
  8
0
 10
11918.049264698929619
 20
25615.3185751835990231
 30
0.0
 11
11968.049264698929619
 21
25714.5995136225610622
 31
0.0
  0
LINE
  5
77F
  8
0
 10
11918.049264698929619
 20
25615.3185751835990231
 30
0.0
 11
11868.049264698929619
 21
25714.5995136225610622
 31
0.0
  0
ARC
  5
780
  8
0
 10
11918.049264698929619
 20
26141.3174905840714928
 30
0.0
 40
240.0
 50
90.0
 51
105.493968000039203
  0
LINE
  5
781
  8
0
  6
HIDDEN
 10
11868.049264698929619
 20
26315.3174905840714928
 30
0.0
 11
11868.049264698929619
 21
25840.635699444628699
 31
0.0
  0
ARC
  5
782
  8
0
 10
11862.4847846989305253
 20
26341.758470584089082
 30
0.0
 40
32.0
 50
105.493968000039203
 51
175.0000000000196962
  0
LINE
  5
783
  8
0
 10
11830.606544698939615
 20
26344.5474505840684287
 30
0.0
 11
11828.049264698929619
 21
26315.3174905840714928
 31
0.0
  0
LINE
  5
784
  8
0
  6
HIDDEN
 10
11968.049264698929619
 20
26315.3174905840714928
 30
0.0
 11
11968.049264698929619
 21
25840.635699444628699
 31
0.0
  0
ARC
  5
785
  8
0
 10
11973.6137446989305317
 20
26341.758470584089082
 30
0.0
 40
32.0
 50
4.9999999999802762
 51
74.5060319999607401
  0
ARC
  5
786
  8
0
 10
11918.049264698929619
 20
26141.3174905840714928
 30
0.0
 40
240.0
 50
74.5060319999607401
 51
90.0
  0
LINE
  5
787
  8
0
 10
12005.4919646989401372
 20
26344.5474505840684287
 30
0.0
 11
12008.049264698929619
 21
26315.3174905840714928
 31
0.0
  0
LINE
  5
788
  8
0
 10
11828.049264698929619
 20
26315.3174905840714928
 30
0.0
 11
12008.049264698929619
 21
26315.3174905840714928
 31
0.0
  0
LINE
  5
789
  8
0
 10
13588.049264698929619
 20
25830.8756994446412136
 30
0.0
 11
13588.049264698929619
 21
25714.5995136225610622
 31
0.0
  0
LINE
  5
78A
  8
0
 10
13488.0492646989896457
 20
25830.8756994446412136
 30
0.0
 11
13488.0492646989896457
 21
25714.5995136225610622
 31
0.0
  0
LINE
  5
78B
  8
0
 10
13538.0492646989896457
 20
25615.3185751835990231
 30
0.0
 11
13588.049264698929619
 21
25714.5995136225610622
 31
0.0
  0
LINE
  5
78C
  8
0
 10
13538.0492646989896457
 20
25615.3185751835990231
 30
0.0
 11
13488.0492646989896457
 21
25714.5995136225610622
 31
0.0
  0
ARC
  5
78D
  8
0
 10
13538.0492646989896457
 20
26141.3174905840714928
 30
0.0
 40
240.0
 50
90.0
 51
105.493968000039203
  0
LINE
  5
78E
  8
0
  6
HIDDEN
 10
13488.0492646989896457
 20
26315.3174905840714928
 30
0.0
 11
13488.0492646989896457
 21
25840.635699444628699
 31
0.0
  0
ARC
  5
78F
  8
0
 10
13482.4847846989796381
 20
26341.758470584089082
 30
0.0
 40
32.0
 50
105.493968000039203
 51
175.0000000000196962
  0
LINE
  5
790
  8
0
 10
13450.6065446989305201
 20
26344.5474505840684287
 30
0.0
 11
13448.0492646989896457
 21
26315.3174905840714928
 31
0.0
  0
LINE
  5
791
  8
0
  6
HIDDEN
 10
13588.049264698929619
 20
26315.3174905840714928
 30
0.0
 11
13588.049264698929619
 21
25840.635699444628699
 31
0.0
  0
ARC
  5
792
  8
0
 10
13593.6137446989905584
 20
26341.758470584089082
 30
0.0
 40
32.0
 50
4.9999999999802762
 51
74.5060319999607401
  0
ARC
  5
793
  8
0
 10
13538.0492646989896457
 20
26141.3174905840714928
 30
0.0
 40
240.0
 50
74.5060319999607401
 51
90.0
  0
LINE
  5
794
  8
0
 10
13625.4919646990001638
 20
26344.5474505840684287
 30
0.0
 11
13628.0492646989896457
 21
26315.3174905840714928
 31
0.0
  0
LINE
  5
795
  8
0
 10
13448.0492646989896457
 20
26315.3174905840714928
 30
0.0
 11
13628.0492646989896457
 21
26315.3174905840714928
 31
0.0
  0
LINE
  5
796
  8
_0-1_
  6
CONTINUOUS
 62
     4
 10
13778.049264698929619
 20
19707.4876216971715621
 30
0.0
 11
13778.049264698929619
 21
26175.3174905841005966
 31
0.0
  0
LINE
  5
797
  8
_0-1_
  6
CONTINUOUS
 62
     4
 10
11678.049264698929619
 20
19707.4876216971715621
 30
0.0
 11
11678.049264698929619
 21
26175.3174905841005966
 31
0.0
  0
LINE
  5
798
  8
_0-1_
  6
CONTINUOUS
 62
     4
 10
13778.049264698929619
 20
25575.3174905841005966
 30
0.0
 11
11678.049264698929619
 21
25575.3174905841005966
 31
0.0
  0
LINE
  5
799
  8
_0-1_
  6
CONTINUOUS
 62
     4
 10
11678.049264698929619
 20
25575.3174905841005966
 30
0.0
 11
13778.049264698929619
 21
26175.3174905841005966
 31
0.0
  0
LINE
  5
79B
  8
_0-1_
  6
CONTINUOUS
 62
     4
 10
14138.049264698929619
 20
25895.3174905841005966
 30
0.0
 11
14138.049264698929619
 21
19707.4876216971715621
 31
0.0
  0
LINE
  5
79C
  8
_0-1_
  6
CONTINUOUS
 62
     4
 10
11318.049264698929619
 20
19707.4876216971715621
 30
0.0
 11
11318.049264698929619
 21
25895.3174905841005966
 31
0.0
  0
LINE
  5
79D
  8
_0-5_
  6
CONTINUOUS
 10
14138.049264698929619
 20
26175.3174905841005966
 30
0.0
 11
14718.049264698929619
 21
26175.3174905841005966
 31
0.0
  0
LINE
  5
79E
  8
_0-5_
  6
CONTINUOUS
 10
14718.049264698929619
 20
26175.3174905841005966
 30
0.0
 11
14718.049264698929619
 21
25595.3174905841005966
 31
0.0
  0
LINE
  5
79F
  8
_0-5_
  6
CONTINUOUS
 10
14718.049264698929619
 20
25595.3174905841005966
 30
0.0
 11
14438.049264698929619
 21
25595.3174905841005966
 31
0.0
  0
LINE
  5
7A0
  8
_0-5_
  6
CONTINUOUS
 10
14438.049264698929619
 20
25595.3174905841005966
 30
0.0
 11
14438.049264698929619
 21
25895.3174905841005966
 31
0.0
  0
LINE
  5
7A1
  8
_0-5_
  6
CONTINUOUS
 10
14438.049264698929619
 20
25895.3174905841005966
 30
0.0
 11
14138.049264698929619
 21
25895.3174905841005966
 31
0.0
  0
LINE
  5
7A2
  8
_0-5_
  6
CONTINUOUS
 10
14138.049264698929619
 20
25895.3174905841005966
 30
0.0
 11
14138.049264698929619
 21
26175.3174905841005966
 31
0.0
  0
LINE
  5
7A3
  8
_0-5_
  6
CONTINUOUS
 10
14138.049264698929619
 20
26105.3174905841005966
 30
0.0
 11
14648.049264698929619
 21
26105.3174905841005966
 31
0.0
  0
LINE
  5
7A4
  8
_0-5_
  6
CONTINUOUS
 10
14438.049264698929619
 20
25895.3174905841005966
 30
0.0
 11
14438.049264698929619
 21
26105.3174905841005966
 31
0.0
  0
LINE
  5
7A5
  8
_0-5_
  6
CONTINUOUS
 10
14138.049264698929619
 20
26035.3174905841005966
 30
0.0
 11
14438.049264698929619
 21
26035.3174905841005966
 31
0.0
  0
LINE
  5
7A6
  8
_0-5_
  6
CONTINUOUS
 10
14138.049264698929619
 20
25965.3174905841005966
 30
0.0
 11
14438.049264698929619
 21
25965.3174905841005966
 31
0.0
  0
LINE
  5
7A7
  8
_0-5_
  6
CONTINUOUS
 10
14438.049264698929619
 20
25895.3174905841005966
 30
0.0
 11
14648.049264698929619
 21
25895.3174905841005966
 31
0.0
  0
LINE
  5
7A8
  8
_0-5_
  6
CONTINUOUS
 10
14578.049264698929619
 20
25595.3174905841005966
 30
0.0
 11
14578.049264698929619
 21
25895.3174905841005966
 31
0.0
  0
LINE
  5
7A9
  8
_0-5_
  6
CONTINUOUS
 10
14508.049264698929619
 20
25595.3174905841005966
 30
0.0
 11
14508.049264698929619
 21
25895.3174905841005966
 31
0.0
  0
LINE
  5
7AA
  8
_0-5_
  6
CONTINUOUS
 10
14648.049264698929619
 20
25595.3174905841005966
 30
0.0
 11
14648.049264698929619
 21
26105.3174905841005966
 31
0.0
  0
LINE
  5
7AB
  8
_0-5_
  6
CONTINUOUS
 10
14438.049264698929619
 20
25835.3174905841005966
 30
0.0
 11
14508.049264698929619
 21
25835.3174905841005966
 31
0.0
  0
LINE
  5
7AC
  8
_0-5_
  6
CONTINUOUS
 10
14508.049264698929619
 20
25715.3174905841005966
 30
0.0
 11
14438.049264698929619
 21
25715.3174905841005966
 31
0.0
  0
LINE
  5
7AD
  8
_0-5_
  6
CONTINUOUS
 10
14508.049264698929619
 20
25655.3174905841005966
 30
0.0
 11
14438.049264698929619
 21
25655.3174905841005966
 31
0.0
  0
LINE
  5
7AE
  8
_0-5_
  6
CONTINUOUS
 10
14508.049264698929619
 20
25775.3174905841005966
 30
0.0
 11
14578.049264698929619
 21
25775.3174905841005966
 31
0.0
  0
LINE
  5
7AF
  8
_0-5_
  6
CONTINUOUS
 10
14508.049264698929619
 20
25745.3174905841005966
 30
0.0
 11
14578.049264698929619
 21
25745.3174905841005966
 31
0.0
  0
LINE
  5
7B0
  8
_0-5_
  6
CONTINUOUS
 10
14578.049264698929619
 20
25685.3174905841005966
 30
0.0
 11
14508.049264698929619
 21
25685.3174905841005966
 31
0.0
  0
LINE
  5
7B1
  8
_0-5_
  6
CONTINUOUS
 10
14578.049264698929619
 20
25625.3174905841005966
 30
0.0
 11
14508.049264698929619
 21
25625.3174905841005966
 31
0.0
  0
LINE
  5
7B2
  8
_0-5_
  6
CONTINUOUS
 10
14578.049264698929619
 20
25855.3174905841005966
 30
0.0
 11
14648.049264698929619
 21
25855.3174905841005966
 31
0.0
  0
LINE
  5
7B3
  8
_0-5_
  6
CONTINUOUS
 10
14648.049264698929619
 20
25795.3174905841005966
 30
0.0
 11
14578.049264698929619
 21
25795.3174905841005966
 31
0.0
  0
LINE
  5
7B4
  8
_0-5_
  6
CONTINUOUS
 10
14648.049264698929619
 20
25715.3174905841005966
 30
0.0
 11
14578.049264698929619
 21
25715.3174905841005966
 31
0.0
  0
LINE
  5
7B5
  8
_0-5_
  6
CONTINUOUS
 10
14648.049264698929619
 20
25655.3174905841005966
 30
0.0
 11
14578.049264698929619
 21
25655.3174905841005966
 31
0.0
  0
LINE
  5
7B6
  8
_0-5_
  6
CONTINUOUS
 10
14508.049264698929619
 20
25875.3174905841005966
 30
0.0
 11
14578.049264698929619
 21
25875.3174905841005966
 31
0.0
  0
LINE
  5
7B7
  8
_0-5_
  6
CONTINUOUS
 10
14718.049264698929619
 20
25815.3174905841005966
 30
0.0
 11
14648.049264698929619
 21
25815.3174905841005966
 31
0.0
  0
LINE
  5
7B8
  8
_0-5_
  6
CONTINUOUS
 10
14718.049264698929619
 20
25775.3174905841005966
 30
0.0
 11
14648.049264698929619
 21
25775.3174905841005966
 31
0.0
  0
LINE
  5
7B9
  8
_0-5_
  6
CONTINUOUS
 10
14718.049264698929619
 20
25695.3174905841005966
 30
0.0
 11
14648.049264698929619
 21
25695.3174905841005966
 31
0.0
  0
LINE
  5
7BA
  8
_0-5_
  6
CONTINUOUS
 10
14718.049264698929619
 20
25635.3174905841005966
 30
0.0
 11
14648.049264698929619
 21
25635.3174905841005966
 31
0.0
  0
LINE
  5
7BB
  8
_0-5_
  6
CONTINUOUS
 10
14198.049264698929619
 20
25895.3174905841005966
 30
0.0
 11
14198.049264698929619
 21
25965.3174905841005966
 31
0.0
  0
LINE
  5
7BC
  8
_0-5_
  6
CONTINUOUS
 10
14318.049264698929619
 20
25965.3174905841005966
 30
0.0
 11
14318.049264698929619
 21
25895.3174905841005966
 31
0.0
  0
LINE
  5
7BD
  8
_0-5_
  6
CONTINUOUS
 10
14378.049264698929619
 20
25965.3174905841005966
 30
0.0
 11
14378.049264698929619
 21
25895.3174905841005966
 31
0.0
  0
LINE
  5
7BE
  8
_0-5_
  6
CONTINUOUS
 10
14258.049264698929619
 20
25965.3174905841005966
 30
0.0
 11
14258.049264698929619
 21
26035.3174905841005966
 31
0.0
  0
LINE
  5
7BF
  8
_0-5_
  6
CONTINUOUS
 10
14288.049264698929619
 20
25965.3174905841005966
 30
0.0
 11
14288.049264698929619
 21
26035.3174905841005966
 31
0.0
  0
LINE
  5
7C0
  8
_0-5_
  6
CONTINUOUS
 10
14348.049264698929619
 20
26035.3174905841005966
 30
0.0
 11
14348.049264698929619
 21
25965.3174905841005966
 31
0.0
  0
LINE
  5
7C1
  8
_0-5_
  6
CONTINUOUS
 10
14408.049264698929619
 20
26035.3174905841005966
 30
0.0
 11
14408.049264698929619
 21
25965.3174905841005966
 31
0.0
  0
LINE
  5
7C2
  8
_0-5_
  6
CONTINUOUS
 10
14178.049264698929619
 20
26035.3174905841005966
 30
0.0
 11
14178.049264698929619
 21
26105.3174905841005966
 31
0.0
  0
LINE
  5
7C3
  8
_0-5_
  6
CONTINUOUS
 10
14238.049264698929619
 20
26105.3174905841005966
 30
0.0
 11
14238.049264698929619
 21
26035.3174905841005966
 31
0.0
  0
LINE
  5
7C4
  8
_0-5_
  6
CONTINUOUS
 10
14318.049264698929619
 20
26105.3174905841005966
 30
0.0
 11
14318.049264698929619
 21
26035.3174905841005966
 31
0.0
  0
LINE
  5
7C5
  8
_0-5_
  6
CONTINUOUS
 10
14378.049264698929619
 20
26105.3174905841005966
 30
0.0
 11
14378.049264698929619
 21
26035.3174905841005966
 31
0.0
  0
LINE
  5
7C6
  8
_0-5_
  6
CONTINUOUS
 10
14158.049264698929619
 20
25965.3174905841005966
 30
0.0
 11
14158.049264698929619
 21
26035.3174905841005966
 31
0.0
  0
LINE
  5
7C7
  8
_0-5_
  6
CONTINUOUS
 10
14218.049264698929619
 20
26175.3174905841005966
 30
0.0
 11
14218.049264698929619
 21
26105.3174905841005966
 31
0.0
  0
LINE
  5
7C8
  8
_0-5_
  6
CONTINUOUS
 10
14258.049264698929619
 20
26175.3174905841005966
 30
0.0
 11
14258.049264698929619
 21
26105.3174905841005966
 31
0.0
  0
LINE
  5
7C9
  8
_0-5_
  6
CONTINUOUS
 10
14338.049264698929619
 20
26175.3174905841005966
 30
0.0
 11
14338.049264698929619
 21
26105.3174905841005966
 31
0.0
  0
LINE
  5
7CA
  8
_0-5_
  6
CONTINUOUS
 10
14398.049264698929619
 20
26175.3174905841005966
 30
0.0
 11
14398.049264698929619
 21
26105.3174905841005966
 31
0.0
  0
LINE
  5
7CB
  8
_0-5_
  6
CONTINUOUS
 10
14648.049264698929619
 20
26105.3174905841005966
 30
0.0
 11
14718.049264698929619
 21
26175.3174905841005966
 31
0.0
  0
LINE
  5
7CC
  8
_0-3_
  6
CONTINUOUS
 62
     2
 10
14438.049264698929619
 20
25595.3174905841005966
 30
0.0
 11
14438.049264698929619
 21
19707.4876216971715621
 31
0.0
  0
LINE
  5
7CD
  8
_0-5_
  6
CONTINUOUS
 10
11318.049264698929619
 20
26175.3174905841005966
 30
0.0
 11
10738.049264698929619
 21
26175.3174905841005966
 31
0.0
  0
LINE
  5
7CE
  8
_0-5_
  6
CONTINUOUS
 10
10738.049264698929619
 20
26175.3174905841005966
 30
0.0
 11
10738.049264698929619
 21
25595.3174905841005966
 31
0.0
  0
LINE
  5
7CF
  8
_0-5_
  6
CONTINUOUS
 10
10738.049264698929619
 20
25595.3174905841005966
 30
0.0
 11
11018.049264698929619
 21
25595.3174905841005966
 31
0.0
  0
LINE
  5
7D0
  8
_0-5_
  6
CONTINUOUS
 10
11018.049264698929619
 20
25595.3174905841005966
 30
0.0
 11
11018.049264698929619
 21
25895.3174905841005966
 31
0.0
  0
LINE
  5
7D1
  8
_0-5_
  6
CONTINUOUS
 10
11018.049264698929619
 20
25895.3174905841005966
 30
0.0
 11
11318.049264698929619
 21
25895.3174905841005966
 31
0.0
  0
LINE
  5
7D2
  8
_0-5_
  6
CONTINUOUS
 10
11318.049264698929619
 20
25895.3174905841005966
 30
0.0
 11
11318.049264698929619
 21
26175.3174905841005966
 31
0.0
  0
LINE
  5
7D3
  8
_0-5_
  6
CONTINUOUS
 10
11318.049264698929619
 20
26105.3174905841005966
 30
0.0
 11
10808.049264698929619
 21
26105.3174905841005966
 31
0.0
  0
LINE
  5
7D4
  8
_0-5_
  6
CONTINUOUS
 10
11018.049264698929619
 20
25895.3174905841005966
 30
0.0
 11
11018.049264698929619
 21
26105.3174905841005966
 31
0.0
  0
LINE
  5
7D5
  8
_0-5_
  6
CONTINUOUS
 10
11318.049264698929619
 20
26035.3174905841005966
 30
0.0
 11
11018.049264698929619
 21
26035.3174905841005966
 31
0.0
  0
LINE
  5
7D6
  8
_0-5_
  6
CONTINUOUS
 10
11318.049264698929619
 20
25965.3174905841005966
 30
0.0
 11
11018.049264698929619
 21
25965.3174905841005966
 31
0.0
  0
LINE
  5
7D7
  8
_0-5_
  6
CONTINUOUS
 10
11018.049264698929619
 20
25895.3174905841005966
 30
0.0
 11
10808.049264698929619
 21
25895.3174905841005966
 31
0.0
  0
LINE
  5
7D8
  8
_0-5_
  6
CONTINUOUS
 10
10878.049264698929619
 20
25595.3174905841005966
 30
0.0
 11
10878.049264698929619
 21
25895.3174905841005966
 31
0.0
  0
LINE
  5
7D9
  8
_0-5_
  6
CONTINUOUS
 10
10948.049264698929619
 20
25595.3174905841005966
 30
0.0
 11
10948.049264698929619
 21
25895.3174905841005966
 31
0.0
  0
LINE
  5
7DA
  8
_0-5_
  6
CONTINUOUS
 10
10808.049264698929619
 20
25595.3174905841005966
 30
0.0
 11
10808.049264698929619
 21
26105.3174905841005966
 31
0.0
  0
LINE
  5
7DB
  8
_0-5_
  6
CONTINUOUS
 10
11018.049264698929619
 20
25835.3174905841005966
 30
0.0
 11
10948.049264698929619
 21
25835.3174905841005966
 31
0.0
  0
LINE
  5
7DC
  8
_0-5_
  6
CONTINUOUS
 10
10948.049264698929619
 20
25715.3174905841005966
 30
0.0
 11
11018.049264698929619
 21
25715.3174905841005966
 31
0.0
  0
LINE
  5
7DD
  8
_0-5_
  6
CONTINUOUS
 10
10948.049264698929619
 20
25655.3174905841005966
 30
0.0
 11
11018.049264698929619
 21
25655.3174905841005966
 31
0.0
  0
LINE
  5
7DE
  8
_0-5_
  6
CONTINUOUS
 10
10948.049264698929619
 20
25775.3174905841005966
 30
0.0
 11
10878.049264698929619
 21
25775.3174905841005966
 31
0.0
  0
LINE
  5
7DF
  8
_0-5_
  6
CONTINUOUS
 10
10948.049264698929619
 20
25745.3174905841005966
 30
0.0
 11
10878.049264698929619
 21
25745.3174905841005966
 31
0.0
  0
LINE
  5
7E0
  8
_0-5_
  6
CONTINUOUS
 10
10878.049264698929619
 20
25685.3174905841005966
 30
0.0
 11
10948.049264698929619
 21
25685.3174905841005966
 31
0.0
  0
LINE
  5
7E1
  8
_0-5_
  6
CONTINUOUS
 10
10878.049264698929619
 20
25625.3174905841005966
 30
0.0
 11
10948.049264698929619
 21
25625.3174905841005966
 31
0.0
  0
LINE
  5
7E2
  8
_0-5_
  6
CONTINUOUS
 10
10878.049264698929619
 20
25855.3174905841005966
 30
0.0
 11
10808.049264698929619
 21
25855.3174905841005966
 31
0.0
  0
LINE
  5
7E3
  8
_0-5_
  6
CONTINUOUS
 10
10808.049264698929619
 20
25795.3174905841005966
 30
0.0
 11
10878.049264698929619
 21
25795.3174905841005966
 31
0.0
  0
LINE
  5
7E4
  8
_0-5_
  6
CONTINUOUS
 10
10808.049264698929619
 20
25715.3174905841005966
 30
0.0
 11
10878.049264698929619
 21
25715.3174905841005966
 31
0.0
  0
LINE
  5
7E5
  8
_0-5_
  6
CONTINUOUS
 10
10808.049264698929619
 20
25655.3174905841005966
 30
0.0
 11
10878.049264698929619
 21
25655.3174905841005966
 31
0.0
  0
LINE
  5
7E6
  8
_0-5_
  6
CONTINUOUS
 10
10948.049264698929619
 20
25875.3174905841005966
 30
0.0
 11
10878.049264698929619
 21
25875.3174905841005966
 31
0.0
  0
LINE
  5
7E7
  8
_0-5_
  6
CONTINUOUS
 10
10738.049264698929619
 20
25815.3174905841005966
 30
0.0
 11
10808.049264698929619
 21
25815.3174905841005966
 31
0.0
  0
LINE
  5
7E8
  8
_0-5_
  6
CONTINUOUS
 10
10738.049264698929619
 20
25775.3174905841005966
 30
0.0
 11
10808.049264698929619
 21
25775.3174905841005966
 31
0.0
  0
LINE
  5
7E9
  8
_0-5_
  6
CONTINUOUS
 10
10738.049264698929619
 20
25695.3174905841005966
 30
0.0
 11
10808.049264698929619
 21
25695.3174905841005966
 31
0.0
  0
LINE
  5
7EA
  8
_0-5_
  6
CONTINUOUS
 10
10738.049264698929619
 20
25635.3174905841005966
 30
0.0
 11
10808.049264698929619
 21
25635.3174905841005966
 31
0.0
  0
LINE
  5
7EB
  8
_0-5_
  6
CONTINUOUS
 10
11258.049264698929619
 20
25895.3174905841005966
 30
0.0
 11
11258.049264698929619
 21
25965.3174905841005966
 31
0.0
  0
LINE
  5
7EC
  8
_0-5_
  6
CONTINUOUS
 10
11138.049264698929619
 20
25965.3174905841005966
 30
0.0
 11
11138.049264698929619
 21
25895.3174905841005966
 31
0.0
  0
LINE
  5
7ED
  8
_0-5_
  6
CONTINUOUS
 10
11078.049264698929619
 20
25965.3174905841005966
 30
0.0
 11
11078.049264698929619
 21
25895.3174905841005966
 31
0.0
  0
LINE
  5
7EE
  8
_0-5_
  6
CONTINUOUS
 10
11198.049264698929619
 20
25965.3174905841005966
 30
0.0
 11
11198.049264698929619
 21
26035.3174905841005966
 31
0.0
  0
LINE
  5
7EF
  8
_0-5_
  6
CONTINUOUS
 10
11168.049264698929619
 20
25965.3174905841005966
 30
0.0
 11
11168.049264698929619
 21
26035.3174905841005966
 31
0.0
  0
LINE
  5
7F0
  8
_0-5_
  6
CONTINUOUS
 10
11108.049264698929619
 20
26035.3174905841005966
 30
0.0
 11
11108.049264698929619
 21
25965.3174905841005966
 31
0.0
  0
LINE
  5
7F1
  8
_0-5_
  6
CONTINUOUS
 10
11048.049264698929619
 20
26035.3174905841005966
 30
0.0
 11
11048.049264698929619
 21
25965.3174905841005966
 31
0.0
  0
LINE
  5
7F2
  8
_0-5_
  6
CONTINUOUS
 10
11278.049264698929619
 20
26035.3174905841005966
 30
0.0
 11
11278.049264698929619
 21
26105.3174905841005966
 31
0.0
  0
LINE
  5
7F3
  8
_0-5_
  6
CONTINUOUS
 10
11218.049264698929619
 20
26105.3174905841005966
 30
0.0
 11
11218.049264698929619
 21
26035.3174905841005966
 31
0.0
  0
LINE
  5
7F4
  8
_0-5_
  6
CONTINUOUS
 10
11138.049264698929619
 20
26105.3174905841005966
 30
0.0
 11
11138.049264698929619
 21
26035.3174905841005966
 31
0.0
  0
LINE
  5
7F5
  8
_0-5_
  6
CONTINUOUS
 10
11078.049264698929619
 20
26105.3174905841005966
 30
0.0
 11
11078.049264698929619
 21
26035.3174905841005966
 31
0.0
  0
LINE
  5
7F6
  8
_0-5_
  6
CONTINUOUS
 10
11298.049264698929619
 20
25965.3174905841005966
 30
0.0
 11
11298.049264698929619
 21
26035.3174905841005966
 31
0.0
  0
LINE
  5
7F7
  8
_0-5_
  6
CONTINUOUS
 10
11238.049264698929619
 20
26175.3174905841005966
 30
0.0
 11
11238.049264698929619
 21
26105.3174905841005966
 31
0.0
  0
LINE
  5
7F8
  8
_0-5_
  6
CONTINUOUS
 10
11198.049264698929619
 20
26175.3174905841005966
 30
0.0
 11
11198.049264698929619
 21
26105.3174905841005966
 31
0.0
  0
LINE
  5
7F9
  8
_0-5_
  6
CONTINUOUS
 10
11118.049264698929619
 20
26175.3174905841005966
 30
0.0
 11
11118.049264698929619
 21
26105.3174905841005966
 31
0.0
  0
LINE
  5
7FA
  8
_0-5_
  6
CONTINUOUS
 10
11058.049264698929619
 20
26175.3174905841005966
 30
0.0
 11
11058.049264698929619
 21
26105.3174905841005966
 31
0.0
  0
LINE
  5
7FB
  8
_0-5_
  6
CONTINUOUS
 10
10808.049264698929619
 20
26105.3174905841005966
 30
0.0
 11
10738.049264698929619
 21
26175.3174905841005966
 31
0.0
  0
LINE
  5
7FC
  8
_0-3_
  6
CONTINUOUS
 62
     2
 10
11018.049264698929619
 20
25595.3174905841005966
 30
0.0
 11
11018.0492646991297079
 21
19707.4876216971715621
 31
0.0
  0
LINE
  5
A49
  8
_0-0_
  6
CENTER1
 62
     4
 10
29238.7202042779717885
 20
29400.0
 30
0.0
 11
29238.7202042779717885
 21
19700.0
 31
0.0
  0
LINE
  5
A55
  8
_0-0_
  6
CENTER1
 62
     4
 10
12728.049264698929619
 20
29400.0
 30
0.0
 11
12728.049264698929619
 21
19700.0
 31
0.0
  0
LINE
  5
A88
  8
_0-2_
  6
DASHED1
 62
     7
 10
27918.7202042779717885
 20
19700.0
 30
0.0
 11
27918.7202042779717885
 21
22775.7027586011499807
 31
0.0
  0
LINE
  5
A89
  8
_0-2_
  6
DASHED1
 62
     7
 10
27918.7202042779717885
 20
24202.3694386011193274
 30
0.0
 11
27918.7202042779717885
 21
26239.0360986011583009
 31
0.0
  0
LINE
  5
AB3
  8
_0-2_
  6
DASHED1
 62
     7
 10
28238.7202042779717885
 20
26559.0360986011583009
 30
0.0
 11
31998.7202042779717885
 21
26558.9581783797984826
 31
0.0
  0
LINE
  5
AB4
  8
_0-3_
  6
CONTINUOUS
 62
     2
 10
28238.7202042779717885
 20
26959.0360986011692148
 30
0.0
 11
32000.0
 21
26958.8612879860083922
 31
0.0
  0
LINE
  5
AB5
  8
_0-3_
  6
DASHED3
 62
     4
 10
28238.0803064169485879
 20
26749.026640036750905
 30
0.0
 11
31999.3601021389913512
 21
26748.9486932935906225
 31
0.0
  0
LINE
  5
B03
  8
_1-5_
  6
CONTINUOUS
 62
     7
 10
27208.7202042779717885
 20
25659.0360986011692148
 30
0.0
 11
26708.2871358935517492
 21
24792.2605983717585332
 31
0.0
  0
LINE
  5
B04
  8
_1-5_
  6
CONTINUOUS
 62
     7
 10
26708.2871358935517492
 20
24792.2605983717585332
 30
0.0
 11
26508.2871358935517492
 21
24792.2605983717585332
 31
0.0
  0
SOLID
  5
B05
  8
_1-5_
  6
CONTINUOUS
 62
     7
 10
27208.7202042779717885
 20
25659.0360986011692148
 30
0.0
 11
27139.5208833047508961
 21
25583.5182913548705983
 31
0.0
 12
27158.7202042779717885
 22
25572.4335582227213308
 32
0.0
 13
27158.7202042779717885
 23
25572.4335582227213308
 33
0.0
  0
LINE
  5
B06
  8
_1-5_
  6
CONTINUOUS
 62
     7
 10
27208.7202042779717885
 20
25659.0360986011692148
 30
0.0
 11
27139.5208833047508961
 21
25583.5182913548705983
 31
0.0
  0
LINE
  5
B07
  8
_1-5_
  6
CONTINUOUS
 62
     7
 10
27139.5208833047508961
 20
25583.5182913548705983
 30
0.0
 11
27158.7202042779717885
 21
25572.4335582227213308
 31
0.0
  0
TEXT
  5
B08
  8
_1-5_
 62
     5
 10
24918.437933983761468
 20
24692.2605983717585332
 30
0.0
 40
200.0
  1
アイテーエル
  0
LINE
  5
B09
  8
_1-5_
  6
CONTINUOUS
 62
     7
 10
28539.4972606983101286
 20
22839.0360986011692148
 30
0.0
 11
27798.7936555105188745
 21
21556.0998210664693033
 31
0.0
  0
LINE
  5
B0A
  8
_1-5_
  6
CONTINUOUS
 62
     7
 10
27798.7936555105188745
 20
21556.0998210664693033
 30
0.0
 11
27598.7936555105188745
 21
21556.0998210664693033
 31
0.0
  0
SOLID
  5
B0B
  8
_1-5_
  6
CONTINUOUS
 62
     7
 10
28539.4972606983101286
 20
22839.0360986011692148
 30
0.0
 11
28470.2979397250892362
 21
22763.5182913548705983
 31
0.0
 12
28489.4972606983101286
 22
22752.4335582227213308
 32
0.0
 13
28489.4972606983101286
 23
22752.4335582227213308
 33
0.0
  0
LINE
  5
B0C
  8
_1-5_
  6
CONTINUOUS
 62
     7
 10
28539.4972606983101286
 20
22839.0360986011692148
 30
0.0
 11
28470.2979397250892362
 21
22763.5182913548705983
 31
0.0
  0
TEXT
  5
B0D
  8
_1-5_
 62
     5
 10
26076.4469838901386538
 20
21456.0998210664693033
 30
0.0
 40
200.0
  1
通気カプラー
  0
LINE
  5
B19
  8
_1-5_
  6
CONTINUOUS
 62
     7
 10
27877.1749370375291619
 20
24133.9633956965699326
 30
0.0
 11
27136.4713318497415457
 21
22851.0271181618809351
 31
0.0
  0
LINE
  5
B1A
  8
_1-5_
  6
CONTINUOUS
 62
     7
 10
27136.4713318497415457
 20
22851.0271181618809351
 30
0.0
 11
26936.4713318497415457
 21
22851.0271181618809351
 31
0.0
  0
SOLID
  5
B1B
  8
_1-5_
  6
CONTINUOUS
 62
     7
 10
27877.1749370375291619
 20
24133.9633956965699326
 30
0.0
 11
27807.9756160643191834
 21
24058.4455884502713161
 31
0.0
 12
27827.1749370375291619
 22
24047.3608553181184107
 32
0.0
 13
27827.1749370375291619
 23
24047.3608553181184107
 33
0.0
  0
TEXT
  5
B1C
  8
_1-5_
 62
     5
 10
25180.334115534718876
 20
22751.0271181618809351
 30
0.0
 40
200.0
  1
防水テープ処理
  0
LINE
  5
B25
  8
_1-5_
  6
CONTINUOUS
 62
     7
 10
27877.1749370375400758
 20
22851.0271181618809351
 30
0.0
 11
27136.4713318497415457
 21
22851.0271181618809351
 31
0.0
  0
SOLID
  5
B26
  8
_1-5_
  6
CONTINUOUS
 62
     7
 10
27877.1749370375400758
 20
22851.0271181618809351
 30
0.0
 11
27777.1749370375400758
 21
22873.1965844261612801
 31
0.0
 12
27777.1749370375291619
 22
22851.0271181618700211
 32
0.0
 13
27777.1749370375291619
 23
22851.0271181618700211
 33
0.0
  0
LINE
  5
B93
  8
_0-5_
  6
CONTINUOUS
 10
21982.8024203082604799
 20
24046.6811459063392249
 30
0.0
 11
21982.8024203082604799
 21
24626.6811459063392249
 31
0.0
  0
LINE
  5
B94
  8
_0-5_
  6
CONTINUOUS
 10
21982.8024203082604799
 20
24626.6811459063392249
 30
0.0
 11
21402.802420308249566
 21
24626.6811459063392249
 31
0.0
  0
LINE
  5
B95
  8
_0-5_
  6
CONTINUOUS
 10
21402.802420308249566
 20
24626.6811459063392249
 30
0.0
 11
21402.802420308249566
 21
24346.6811459063392249
 31
0.0
  0
LINE
  5
B96
  8
_0-5_
  6
CONTINUOUS
 10
21402.802420308249566
 20
24346.6811459063392249
 30
0.0
 11
21702.8024203082604799
 21
24346.6811459063392249
 31
0.0
  0
LINE
  5
B97
  8
0
  6
CONTINUOUS
 10
21702.8024203082604799
 20
24346.6811459063392249
 30
0.0
 11
21702.8024203082604799
 21
24046.6811459063392249
 31
0.0
  0
LINE
  5
B98
  8
_0-5_
  6
CONTINUOUS
 10
21702.8024203082604799
 20
24046.6811459063392249
 30
0.0
 11
21982.8024203082604799
 21
24046.6811459063392249
 31
0.0
  0
LINE
  5
B99
  8
_0-5_
  6
CONTINUOUS
 10
21912.802420308249566
 20
24046.6811459063392249
 30
0.0
 11
21912.802420308249566
 21
24556.6811459063392249
 31
0.0
  0
LINE
  5
B9A
  8
_0-5_
  6
CONTINUOUS
 10
21702.8024203082604799
 20
24346.6811459063392249
 30
0.0
 11
21912.802420308249566
 21
24346.6811459063392249
 31
0.0
  0
LINE
  5
B9B
  8
_0-5_
  6
CONTINUOUS
 10
21842.802420308249566
 20
24046.6811459063392249
 30
0.0
 11
21842.802420308249566
 21
24346.6811459063392249
 31
0.0
  0
LINE
  5
B9C
  8
_0-5_
  6
CONTINUOUS
 10
21772.802420308249566
 20
24046.6811459063392249
 30
0.0
 11
21772.802420308249566
 21
24346.6811459063392249
 31
0.0
  0
LINE
  5
B9D
  8
_0-5_
  6
CONTINUOUS
 10
21702.8024203082604799
 20
24346.6811459063392249
 30
0.0
 11
21702.8024203082604799
 21
24556.6811459063392249
 31
0.0
  0
LINE
  5
B9E
  8
_0-5_
  6
CONTINUOUS
 10
21402.802420308249566
 20
24486.6811459063392249
 30
0.0
 11
21702.8024203082604799
 21
24486.6811459063392249
 31
0.0
  0
LINE
  5
B9F
  8
_0-5_
  6
CONTINUOUS
 10
21402.802420308249566
 20
24416.6811459063392249
 30
0.0
 11
21702.8024203082604799
 21
24416.6811459063392249
 31
0.0
  0
LINE
  5
BA0
  8
_0-5_
  6
CONTINUOUS
 10
21402.802420308249566
 20
24556.6811459063392249
 30
0.0
 11
21912.802420308249566
 21
24556.6811459063392249
 31
0.0
  0
LINE
  5
BA1
  8
_0-5_
  6
CONTINUOUS
 10
21642.802420308249566
 20
24346.6811459063392249
 30
0.0
 11
21642.802420308249566
 21
24416.6811459063392249
 31
0.0
  0
LINE
  5
BA2
  8
_0-5_
  6
CONTINUOUS
 10
21522.802420308249566
 20
24416.6811459063392249
 30
0.0
 11
21522.802420308249566
 21
24346.6811459063392249
 31
0.0
  0
LINE
  5
BA3
  8
_0-5_
  6
CONTINUOUS
 10
21462.8024203082604799
 20
24416.6811459063392249
 30
0.0
 11
21462.8024203082604799
 21
24346.6811459063392249
 31
0.0
  0
LINE
  5
BA4
  8
_0-5_
  6
CONTINUOUS
 10
21582.8024203082604799
 20
24416.6811459063392249
 30
0.0
 11
21582.8024203082604799
 21
24486.6811459063392249
 31
0.0
  0
LINE
  5
BA5
  8
_0-5_
  6
CONTINUOUS
 10
21552.802420308249566
 20
24416.6811459063392249
 30
0.0
 11
21552.802420308249566
 21
24486.6811459063392249
 31
0.0
  0
LINE
  5
BA6
  8
_0-5_
  6
CONTINUOUS
 10
21492.802420308249566
 20
24486.6811459063392249
 30
0.0
 11
21492.802420308249566
 21
24416.6811459063392249
 31
0.0
  0
LINE
  5
BA7
  8
_0-5_
  6
CONTINUOUS
 10
21432.802420308249566
 20
24486.6811459063392249
 30
0.0
 11
21432.802420308249566
 21
24416.6811459063392249
 31
0.0
  0
LINE
  5
BA8
  8
_0-5_
  6
CONTINUOUS
 10
21662.8024203082604799
 20
24486.6811459063392249
 30
0.0
 11
21662.8024203082604799
 21
24556.6811459063392249
 31
0.0
  0
LINE
  5
BA9
  8
_0-5_
  6
CONTINUOUS
 10
21602.802420308249566
 20
24556.6811459063392249
 30
0.0
 11
21602.802420308249566
 21
24486.6811459063392249
 31
0.0
  0
LINE
  5
BAA
  8
_0-5_
  6
CONTINUOUS
 10
21522.802420308249566
 20
24556.6811459063392249
 30
0.0
 11
21522.802420308249566
 21
24486.6811459063392249
 31
0.0
  0
LINE
  5
BAB
  8
_0-5_
  6
CONTINUOUS
 10
21462.8024203082604799
 20
24556.6811459063392249
 30
0.0
 11
21462.8024203082604799
 21
24486.6811459063392249
 31
0.0
  0
LINE
  5
BAC
  8
_0-5_
  6
CONTINUOUS
 10
21682.802420308249566
 20
24416.6811459063392249
 30
0.0
 11
21682.802420308249566
 21
24486.6811459063392249
 31
0.0
  0
LINE
  5
BAD
  8
_0-5_
  6
CONTINUOUS
 10
21622.8024203082604799
 20
24626.6811459063392249
 30
0.0
 11
21622.8024203082604799
 21
24556.6811459063392249
 31
0.0
  0
LINE
  5
BAE
  8
_0-5_
  6
CONTINUOUS
 10
21582.8024203082604799
 20
24626.6811459063392249
 30
0.0
 11
21582.8024203082604799
 21
24556.6811459063392249
 31
0.0
  0
LINE
  5
BAF
  8
_0-5_
  6
CONTINUOUS
 10
21502.8024203082604799
 20
24626.6811459063392249
 30
0.0
 11
21502.8024203082604799
 21
24556.6811459063392249
 31
0.0
  0
LINE
  5
BB0
  8
_0-5_
  6
CONTINUOUS
 10
21442.802420308249566
 20
24626.6811459063392249
 30
0.0
 11
21442.802420308249566
 21
24556.6811459063392249
 31
0.0
  0
LINE
  5
BB1
  8
_0-5_
  6
CONTINUOUS
 10
21702.8024203082604799
 20
24106.6811459063392249
 30
0.0
 11
21772.802420308249566
 21
24106.6811459063392249
 31
0.0
  0
LINE
  5
BB2
  8
_0-5_
  6
CONTINUOUS
 10
21772.802420308249566
 20
24226.6811459063392249
 30
0.0
 11
21702.8024203082604799
 21
24226.6811459063392249
 31
0.0
  0
LINE
  5
BB3
  8
_0-5_
  6
CONTINUOUS
 10
21772.802420308249566
 20
24286.6811459063392249
 30
0.0
 11
21702.8024203082604799
 21
24286.6811459063392249
 31
0.0
  0
LINE
  5
BB4
  8
_0-5_
  6
CONTINUOUS
 10
21772.802420308249566
 20
24166.6811459063392249
 30
0.0
 11
21842.802420308249566
 21
24166.6811459063392249
 31
0.0
  0
LINE
  5
BB5
  8
_0-5_
  6
CONTINUOUS
 10
21772.802420308249566
 20
24196.6811459063392249
 30
0.0
 11
21842.802420308249566
 21
24196.6811459063392249
 31
0.0
  0
LINE
  5
BB6
  8
_0-5_
  6
CONTINUOUS
 10
21842.802420308249566
 20
24256.6811459063392249
 30
0.0
 11
21772.802420308249566
 21
24256.6811459063392249
 31
0.0
  0
LINE
  5
BB7
  8
_0-5_
  6
CONTINUOUS
 10
21842.802420308249566
 20
24316.6811459063392249
 30
0.0
 11
21772.802420308249566
 21
24316.6811459063392249
 31
0.0
  0
LINE
  5
BB8
  8
_0-5_
  6
CONTINUOUS
 10
21842.802420308249566
 20
24086.6811459063392249
 30
0.0
 11
21912.802420308249566
 21
24086.6811459063392249
 31
0.0
  0
LINE
  5
BB9
  8
_0-5_
  6
CONTINUOUS
 10
21912.802420308249566
 20
24146.6811459063392249
 30
0.0
 11
21842.802420308249566
 21
24146.6811459063392249
 31
0.0
  0
LINE
  5
BBA
  8
_0-5_
  6
CONTINUOUS
 10
21912.802420308249566
 20
24226.6811459063392249
 30
0.0
 11
21842.802420308249566
 21
24226.6811459063392249
 31
0.0
  0
LINE
  5
BBB
  8
_0-5_
  6
CONTINUOUS
 10
21912.802420308249566
 20
24286.6811459063392249
 30
0.0
 11
21842.802420308249566
 21
24286.6811459063392249
 31
0.0
  0
LINE
  5
BBC
  8
_0-5_
  6
CONTINUOUS
 10
21772.802420308249566
 20
24066.6811459063392249
 30
0.0
 11
21842.802420308249566
 21
24066.6811459063392249
 31
0.0
  0
LINE
  5
BBD
  8
_0-5_
  6
CONTINUOUS
 10
21982.8024203082604799
 20
24126.6811459063392249
 30
0.0
 11
21912.802420308249566
 21
24126.6811459063392249
 31
0.0
  0
LINE
  5
BBE
  8
_0-5_
  6
CONTINUOUS
 10
21982.8024203082604799
 20
24166.6811459063392249
 30
0.0
 11
21912.802420308249566
 21
24166.6811459063392249
 31
0.0
  0
LINE
  5
BBF
  8
_0-5_
  6
CONTINUOUS
 10
21982.8024203082604799
 20
24246.6811459063392249
 30
0.0
 11
21912.802420308249566
 21
24246.6811459063392249
 31
0.0
  0
LINE
  5
BC0
  8
_0-5_
  6
CONTINUOUS
 10
21982.8024203082604799
 20
24306.6811459063392249
 30
0.0
 11
21912.802420308249566
 21
24306.6811459063392249
 31
0.0
  0
LINE
  5
BC1
  8
_0-5_
  6
CONTINUOUS
 10
21912.802420308249566
 20
24556.6811459063392249
 30
0.0
 11
21982.8024203082604799
 21
24626.6811459063392249
 31
0.0
  0
LINE
  5
BC2
  8
_0-5_
  6
CONTINUOUS
 10
21772.8024313405803696
 20
24556.6811713166098343
 30
0.0
 11
21772.8024313405803696
 21
24626.6811713166098343
 31
0.0
  0
LINE
  5
BC3
  8
_0-5_
  6
CONTINUOUS
 10
21742.8024313405912835
 20
24556.6811713166098343
 30
0.0
 11
21742.8024313405912835
 21
24626.6811713166098343
 31
0.0
  0
LINE
  5
BC4
  8
_0-5_
  6
CONTINUOUS
 10
21682.8024313405803696
 20
24626.6811713166098343
 30
0.0
 11
21682.8024313405803696
 21
24556.6811713166098343
 31
0.0
  0
LINE
  5
BC5
  8
_0-5_
  6
CONTINUOUS
 10
21872.8024313405803696
 20
24556.6811713166098343
 30
0.0
 11
21872.8024313405803696
 21
24626.6811713166098343
 31
0.0
  0
LINE
  5
BC6
  8
_0-5_
  6
CONTINUOUS
 10
21912.8024293771813973
 20
24406.6810844733518024
 30
0.0
 11
21982.8024293771813973
 21
24406.6810844733518024
 31
0.0
  0
LINE
  5
BC7
  8
_0-5_
  6
CONTINUOUS
 10
21912.8024293771813973
 20
24436.6810844733518024
 30
0.0
 11
21982.8024293771813973
 21
24436.6810844733518024
 31
0.0
  0
LINE
  5
BC8
  8
_0-5_
  6
CONTINUOUS
 10
21982.8024293771813973
 20
24496.6810844733518024
 30
0.0
 11
21912.8024293771813973
 21
24496.6810844733518024
 31
0.0
  0
LINE
  5
BC9
  8
_0-5_
  6
CONTINUOUS
 10
21982.8024293771813973
 20
24556.6810844733518024
 30
0.0
 11
21912.8024293771813973
 21
24556.6810844733518024
 31
0.0
  0
LINE
  5
D25
  8
_0-4_
 62
     3
 10
2732.3785762346228694
 20
26564.6855916904496553
 30
0.0
 11
6592.37857623473883
 21
26444.596702801540232
 31
0.0
  0
LINE
  5
D26
  8
_0-4_
 62
     3
 10
2733.0004975504712093
 20
26584.6759196987004543
 30
0.0
 11
6593.0004975504925824
 21
26464.5870308097910311
 31
0.0
  0
LINE
  5
D27
  8
_0-3_
 62
     2
 10
3178.3785762346819865
 20
26195.3174905840714928
 30
0.0
 11
6338.6484962346730754
 21
26195.3174905840714928
 31
0.0
  0
LINE
  5
D28
  8
_0-4_
 62
     3
 10
2732.3785762346228694
 20
25405.3174905840714928
 30
0.0
 11
2892.3785762346228694
 21
25405.3174905840714928
 31
0.0
  0
LINE
  5
D29
  8
_0-4_
 62
     3
 10
2732.3785762346228694
 20
25425.3174905840714928
 30
0.0
 11
2892.3785762346228694
 21
25425.3174905840714928
 31
0.0
  0
LINE
  5
D2A
  8
_0-4_
 62
     3
 10
2712.3785762346237789
 20
26564.6855916904496553
 30
0.0
 11
2712.3785762346237789
 21
25425.3174905840714928
 31
0.0
  0
LINE
  5
D2B
  8
_0-4_
 62
     3
 10
2732.3785762346228694
 20
26564.6855916904496553
 30
0.0
 11
2732.3785762346228694
 21
25425.3174905840714928
 31
0.0
  0
ARC
  5
D2C
  8
_0-4_
 62
     3
 10
2732.3785762346228694
 20
25425.3174905840714928
 30
0.0
 40
20.0
 50
180.0
 51
270.0
  0
ARC
  5
D2D
  8
_0-4_
 62
     3
 10
2732.3785762346228694
 20
26564.6855916904496553
 30
0.0
 40
20.0
 50
88.2180394096130414
 51
180.0
  0
LINE
  5
D2E
  8
_0-4_
 62
     3
 10
2892.3785762346228694
 20
25405.3174905840714928
 30
0.0
 11
2892.3785762346228694
 21
25425.3174905840714928
 31
0.0
  0
LINE
  5
D2F
  8
_0-1_
 62
     4
 10
3552.3785762346237789
 20
26175.3174905840714928
 30
0.0
 11
6012.3785762346242336
 21
26175.3174905841005966
 31
0.0
  0
LINE
  5
D30
  8
_0-4_
 62
     3
 10
6612.3785762346233241
 20
25425.3174905840714928
 30
0.0
 11
6612.3785762346806223
 21
26444.5967028015693359
 31
0.0
  0
LINE
  5
D31
  8
_0-4_
 62
     3
 10
6592.3785762346806223
 20
25425.3174905840714928
 30
0.0
 11
6592.37857623473883
 21
26444.596702801540232
 31
0.0
  0
LINE
  5
D32
  8
_0-4_
 62
     3
 10
6432.3785762346824413
 20
25405.3174905840714928
 30
0.0
 11
6592.3785762346806223
 21
25405.3174905840714928
 31
0.0
  0
LINE
  5
D33
  8
_0-4_
 62
     3
 10
6432.3785762346824413
 20
25425.3174905840714928
 30
0.0
 11
6432.3785762346824413
 21
25405.3174905840714928
 31
0.0
  0
LINE
  5
D34
  8
_0-4_
 62
     3
 10
6432.3785762346824413
 20
25425.3174905840714928
 30
0.0
 11
6592.3785762346806223
 21
25425.3174905840714928
 31
0.0
  0
ARC
  5
D35
  8
_0-4_
 62
     3
 10
6592.3785762346806223
 20
25425.3174905840714928
 30
0.0
 40
20.0
 50
270.0
 51
0.0
  0
ARC
  5
D36
  8
_0-4_
 62
     3
 10
6592.3785762346806223
 20
26444.5967028015693359
 30
0.0
 40
20.0
 50
0.0
 51
88.2180394096130414
  0
LINE
  5
D37
  8
_0-3_
 62
     2
 10
2746.3785762346237789
 20
25524.7293705840711482
 30
0.0
 11
2746.3785762346237789
 21
25455.3174905840714928
 31
0.0
  0
LINE
  5
D38
  8
_0-3_
 62
     2
 10
2746.4927762346342206
 20
25525.8944105841001146
 30
0.0
 11
2938.378576234681077
 21
26495.3174905840714928
 31
0.0
  0
LINE
  5
D39
  8
_0-3_
 62
     2
 10
2969.2101162346671117
 20
26290.5738505840708967
 30
0.0
 11
2816.4927762346342206
 21
25519.0331305840809364
 31
0.0
  0
LINE
  5
D3A
  8
_0-3_
 62
     2
 10
3178.3785762346819865
 20
26315.3174905840714928
 30
0.0
 11
3178.3785762346819865
 21
26487.3174905840714928
 31
0.0
  0
LINE
  5
D3B
  8
_0-3_
 62
     2
 10
3093.0616962346830405
 20
26471.2221705840784125
 30
0.0
 11
3093.2615762346540578
 21
26477.2188505840895232
 31
0.0
  0
LINE
  5
D3C
  8
_0-3_
 62
     2
 10
3025.0994362346827984
 20
26473.4875905840890482
 30
0.0
 11
3025.2993162346538156
 21
26479.4842505840715603
 31
0.0
  0
LINE
  5
D3D
  8
_0-3_
 62
     2
 10
3106.61381623463285
 20
26489.7096505840891041
 30
0.0
 11
3093.2615762346540578
 21
26477.2188505840895232
 31
0.0
  0
LINE
  5
D3E
  8
_0-3_
 62
     2
 10
3025.2993162346538156
 20
26479.4842505840715603
 30
0.0
 11
3012.8085362346610054
 21
26492.8364905841008294
 31
0.0
  0
LINE
  5
D3F
  8
_0-3_
 62
     2
 10
3178.3785762346819865
 20
26487.3174905840714928
 30
0.0
 11
3106.61381623463285
 21
26489.7096505840891041
 31
0.0
  0
LINE
  5
D40
  8
_0-3_
 62
     2
 10
3012.8085362346610054
 20
26492.8364905841008294
 30
0.0
 11
2938.378576234681077
 21
26495.3174905840714928
 31
0.0
  0
ARC
  5
D41
  8
_0-3_
 62
     2
 10
3058.3785762346819865
 20
26451.2952705840907583
 30
0.0
 40
40.0
 50
146.3025170000090043
 51
29.879177999833189
  0
LINE
  5
D42
  8
_0-3_
 62
     2
 10
2816.3785762346228694
 20
25517.8681105840587406
 30
0.0
 11
2816.3785762346228694
 21
25431.3174905840714928
 31
0.0
  0
LINE
  5
D43
  8
_0-3_
 62
     2
 10
2810.3785762346819865
 20
25425.3174905840714928
 30
0.0
 11
2776.3785762346819865
 21
25425.3174905840714928
 31
0.0
  0
ARC
  5
D44
  8
_0-3_
 62
     2
 10
2776.3785762346819865
 20
25455.3174905840714928
 30
0.0
 40
30.0
 50
180.0
 51
270.0
  0
ARC
  5
D45
  8
_0-3_
 62
     2
 10
2810.3785762346819865
 20
25431.3174905840714928
 30
0.0
 40
6.0
 50
270.0
 51
0.0
  0
LINE
  5
D47
  8
_0-3_
 62
     2
 10
3098.3785762346819865
 20
26275.3174905840714928
 30
0.0
 11
3098.3785762346819865
 21
26277.9129705840896349
 31
0.0
  0
ARC
  5
D48
  8
_0-3_
 62
     2
 10
3178.3785762346819865
 20
26275.3174905840714928
 30
0.0
 40
80.0
 50
180.0
 51
270.0
  0
ARC
  5
D49
  8
_0-3_
 62
     2
 10
3033.1738362346081885
 20
26277.9129705840896349
 30
0.0
 40
65.204740000000001
 50
0.0
 51
168.803704000016694
  0
LINE
  5
D4A
  8
_0-3_
 62
     2
 10
3178.3785762346819865
 20
26315.3174905840714928
 30
0.0
 11
4956.3785762346824413
 21
26315.3174905840714928
 31
0.0
  0
LINE
  5
D4B
  8
_0-3_
 62
     2
 10
4968.3785762346806223
 20
26315.3174905840714928
 30
0.0
 11
6168.3785762346806223
 21
26315.3174905840714928
 31
0.0
  0
LINE
  5
D4C
  8
_0-3_
 62
     2
 10
4968.3785762346806223
 20
26315.3174905840714928
 30
0.0
 11
4962.3785762346233241
 21
26309.3174905840714928
 31
0.0
  0
LINE
  5
D4D
  8
_0-3_
 62
     2
 10
4956.3785762346824413
 20
26315.3174905840714928
 30
0.0
 11
4962.3785762346233241
 21
26309.3174905840714928
 31
0.0
  0
LINE
  5
D4E
  8
_0-3_
 62
     2
 10
4446.3785762346233241
 20
26315.3174905840714928
 30
0.0
 11
4446.3785762346233241
 21
26195.3174905840714928
 31
0.0
  0
LINE
  5
D4F
  8
_0-3_
 62
     2
 10
3846.3785762346237789
 20
26315.3174905840714928
 30
0.0
 11
3846.3785762346237789
 21
26195.3174905840714928
 31
0.0
  0
LINE
  5
D50
  8
0
 10
2944.3226162346550154
 20
26517.3240705840908049
 30
0.0
 11
2994.9493362346552203
 21
26564.6845505840610713
 31
0.0
  0
ARC
  5
D51
  8
0
 10
2953.2036562346620485
 20
26507.8305305840585788
 30
0.0
 40
13.0
 50
133.0908480000555016
 51
313.0908480000554732
  0
LINE
  5
D52
  8
0
 10
2997.9591962346457876
 20
26531.8970305840812216
 30
0.0
 11
2962.0846962346699911
 21
26498.3370105840695032
 31
0.0
  0
ARC
  5
D53
  8
0
 10
3004.7907762346439995
 20
26524.5943105840706266
 30
0.0
 40
10.0
 50
358.0908479998686857
 51
133.0908480000555016
  0
LINE
  5
D54
  8
0
 10
3014.7852162346248406
 20
26524.2611705840718059
 30
0.0
 11
3013.7366962346709442
 21
26492.8055505840784463
 31
0.0
  0
LINE
  5
D55
  8
0
 10
3043.3868962346459739
 20
26481.8116505840698665
 30
0.0
 11
3023.3979962346488719
 21
26482.4779505840815546
 31
0.0
  0
LINE
  5
D56
  8
0
 10
3041.9876762346248142
 20
26439.8349705840482784
 30
0.0
 11
3043.3868962346459739
 21
26481.8116505840698665
 31
0.0
  0
ARC
  5
D57
  8
0
 10
3058.3785762346819865
 20
26451.2952705840907583
 30
0.0
 40
20.0
 50
167.8425609999256096
 51
214.9607420000187972
  0
ARC
  5
D58
  8
0
 10
3029.0513962346599328
 20
26457.6132305840692425
 30
0.0
 40
10.0
 50
347.8425609999255812
 51
167.8425609999256096
  0
ARC
  5
D59
  8
0
 10
3015.444056234672189
 20
26542.7764105840797129
 30
0.0
 40
30.0
 50
11.6281009997521494
 51
133.0908480000555016
  0
LINE
  5
D5A
  8
0
 10
3044.8283562346477993
 20
26548.8231505840703903
 30
0.0
 11
3050.9158562346710823
 21
26519.2408305840508547
 31
0.0
  0
ARC
  5
D5B
  8
0
 10
3060.7106162346899509
 20
26521.2564105840610864
 30
0.0
 40
10.0
 50
191.6281009997520925
 51
344.5535950001305991
  0
LINE
  5
D5C
  8
0
 10
3078.3933762346860021
 20
26547.7043305840597895
 30
0.0
 11
3070.3494162346469238
 21
26518.5930505840515252
 31
0.0
  0
ARC
  5
D5D
  8
0
 10
3107.3097762346737909
 20
26539.7142105840612203
 30
0.0
 40
30.0
 50
43.0908480000164289
 51
164.5535950001305991
  0
LINE
  5
D5E
  8
0
 10
3176.5783962346617955
 20
26509.5822105841107259
 30
0.0
 11
3129.2179162346301382
 21
26560.2089305841109308
 31
0.0
  0
ARC
  5
D5F
  8
0
 10
3167.0848562346659492
 20
26500.7011705840704963
 30
0.0
 40
13.0
 50
223.0908480000163934
 51
43.0908480000164289
  0
LINE
  5
D60
  8
0
 10
3124.0313162346142235
 20
26527.6946305841011053
 30
0.0
 11
3157.5913362346468602
 21
26491.8201305840593704
 31
0.0
  0
ARC
  5
D61
  8
0
 10
3116.7285962346941233
 20
26520.8630505840992555
 30
0.0
 40
10.0
 50
43.0908480000164289
 51
178.0908479998687142
  0
LINE
  5
D62
  8
0
 10
3106.7341562345977763
 20
26521.1962105840502772
 30
0.0
 11
3105.6856362346447895
 21
26489.7405905840896594
 31
0.0
  0
LINE
  5
D63
  8
0
 10
3075.3691362346289679
 20
26480.745590584090678
 30
0.0
 11
3095.3580362346260699
 21
26480.0792905840789899
 31
0.0
  0
LINE
  5
D64
  8
0
 10
3073.9699162346078083
 20
26438.7688905840914231
 30
0.0
 11
3075.3691362346289679
 21
26480.745590584090678
 31
0.0
  0
ARC
  5
D65
  8
0
 10
3058.3785762346819865
 20
26451.2952705840907583
 30
0.0
 40
20.0
 50
321.2209470000821057
 51
9.1178590000076802
  0
ARC
  5
D66
  8
0
 10
3087.9995162346749566
 20
26456.0492505840702506
 30
0.0
 40
10.0
 50
9.1178590000076802
 51
189.1178550001282019
  0
LINE
  5
D67
  8
_0-3_
 62
     2
 10
6548.3785762346806223
 20
25425.3174905840714928
 30
0.0
 11
6514.3785762346242336
 21
25425.3174905840714928
 31
0.0
  0
LINE
  5
D68
  8
_0-3_
 62
     2
 10
6578.3785762346806223
 20
25455.3174905840714928
 30
0.0
 11
6578.3785762346806223
 21
25524.7164305840815359
 31
0.0
  0
LINE
  5
D69
  8
_0-3_
 62
     2
 10
6578.2593562346310136
 20
25525.9065905840507185
 30
0.0
 11
6404.3034662878462768
 21
26385.4533276580114034
 31
0.0
  0
LINE
  5
D6A
  8
_0-3_
 62
     2
 10
6377.8536562346271239
 20
26163.2518705840593611
 30
0.0
 11
6508.2593562346301042
 21
25518.8943505841016304
 31
0.0
  0
LINE
  5
D6B
  8
_0-3_
 62
     2
 10
6508.3785762346824413
 20
25431.3174905840714928
 30
0.0
 11
6508.3785762346824413
 21
25517.704190584099706
 31
0.0
  0
LINE
  5
D6C
  8
_0-3_
 62
     2
 10
6168.3785762346806223
 20
26393.3174905841005966
 30
0.0
 11
6168.3785762346806223
 21
26315.3174905840714928
 31
0.0
  0
ARC
  5
D6D
  8
_0-3_
 62
     2
 10
6338.6484962346730754
 20
26155.3174905840714928
 30
0.0
 40
40.0
 50
11.4410439998276399
 51
90.0
  0
LINE
  5
D6E
  8
_0-3_
 62
     2
 10
6323.0616962346830405
 20
26369.2221705840784125
 30
0.0
 11
6323.2615762346540578
 21
26375.2188505840604194
 31
0.0
  0
LINE
  5
D6F
  8
_0-3_
 62
     2
 10
6255.0994362346827984
 20
26371.4875905840890482
 30
0.0
 11
6255.2993162346538156
 21
26377.4842505840606464
 31
0.0
  0
LINE
  5
D70
  8
_0-3_
 62
     2
 10
6336.6138162346323952
 20
26387.7096505840891041
 30
0.0
 11
6323.2615762346540578
 21
26375.2188505840604194
 31
0.0
  0
LINE
  5
D71
  8
_0-3_
 62
     2
 10
6255.2993162346538156
 20
26377.4842505840606464
 30
0.0
 11
6242.8085362346619149
 21
26390.8364905841008294
 31
0.0
  0
LINE
  5
D72
  8
_0-3_
 62
     2
 10
6404.3034662878462768
 20
26385.4533276580114034
 30
0.0
 11
6336.6138162346323952
 21
26387.7096505840891041
 31
0.0
  0
LINE
  5
D73
  8
_0-3_
 62
     2
 10
6242.8085362346619149
 20
26390.8364905841008294
 30
0.0
 11
6168.3785762346806223
 21
26393.3174905841005966
 31
0.0
  0
ARC
  5
D74
  8
_0-3_
 62
     2
 10
6288.3785762346806223
 20
26349.2952705840907583
 30
0.0
 40
40.0
 50
146.3025170000090043
 51
29.879177999833189
  0
ARC
  5
D75
  8
_0-3_
 62
     2
 10
6514.3785762346242336
 20
25431.3174905840714928
 30
0.0
 40
6.0
 50
180.0
 51
270.0
  0
ARC
  5
D76
  8
_0-3_
 62
     2
 10
6548.3785762346806223
 20
25455.3174905840714928
 30
0.0
 40
30.0
 50
270.0
 51
0.0
  0
LINE
  5
D77
  8
0
 10
6174.3226162346536512
 20
26415.3240705840617011
 30
0.0
 11
6224.9493362346538561
 21
26462.6845505840610713
 31
0.0
  0
ARC
  5
D78
  8
0
 10
6183.2036562346620485
 20
26405.8305305840585788
 30
0.0
 40
13.0
 50
133.0908480000555016
 51
313.0908480000554732
  0
LINE
  5
D79
  8
0
 10
6227.9591962346457876
 20
26429.8970305840812216
 30
0.0
 11
6192.0846962346686269
 21
26396.3370105840695032
 31
0.0
  0
ARC
  5
D7A
  8
0
 10
6234.7907762346439995
 20
26422.5943105840706266
 30
0.0
 40
10.0
 50
358.0908479998686857
 51
133.0908480000555016
  0
LINE
  5
D7B
  8
0
 10
6244.7852162346252953
 20
26422.2611705840718059
 30
0.0
 11
6243.736696234671399
 21
26390.8055505840711703
 31
0.0
  0
LINE
  5
D7C
  8
0
 10
6273.3868962346459739
 20
26379.8116505840698665
 30
0.0
 11
6253.3979962346493267
 21
26380.4779505840597267
 31
0.0
  0
LINE
  5
D7D
  8
0
 10
6271.9876762346830219
 20
26337.8349705840810202
 30
0.0
 11
6273.3868962346459739
 21
26379.8116505840698665
 31
0.0
  0
ARC
  5
D7E
  8
0
 10
6288.3785762346806223
 20
26349.2952705840907583
 30
0.0
 40
20.0
 50
167.8425609999256096
 51
214.9607420000187972
  0
ARC
  5
D7F
  8
0
 10
6259.0513962346603876
 20
26355.6132305840801564
 30
0.0
 40
10.0
 50
347.8425609999255812
 51
167.8425609999256096
  0
ARC
  5
D80
  8
0
 10
6245.4440562346717343
 20
26440.7764105840797129
 30
0.0
 40
30.0
 50
11.6281009997521494
 51
133.0908480000555016
  0
LINE
  5
D81
  8
0
 10
6274.8283562346477993
 20
26446.8231505840703903
 30
0.0
 11
6280.9158562346701729
 21
26417.2408305841090623
 31
0.0
  0
ARC
  5
D82
  8
0
 10
6290.7106162346899509
 20
26419.2564105840610864
 30
0.0
 40
10.0
 50
191.6281009997520925
 51
344.5535950001305991
  0
LINE
  5
D83
  8
0
 10
6308.3933762346860021
 20
26445.7043305840888934
 30
0.0
 11
6300.3494162346469238
 21
26416.5930505840515252
 31
0.0
  0
ARC
  5
D84
  8
0
 10
6337.3097762346742456
 20
26437.7142105840612203
 30
0.0
 40
30.0
 50
43.0908480000164289
 51
164.5535950001305991
  0
LINE
  5
D85
  8
0
 10
6406.5783962346613407
 20
26407.5822105840816221
 30
0.0
 11
6359.2179162346292287
 21
26458.208930584078189
 31
0.0
  0
ARC
  5
D86
  8
0
 10
6397.0848562346645849
 20
26398.7011705840704963
 30
0.0
 40
13.0
 50
223.0908480000163934
 51
43.0908480000164289
  0
LINE
  5
D87
  8
0
 10
6354.0313162346719764
 20
26425.6946305840683635
 30
0.0
 11
6387.591336234647315
 21
26389.8201305840884743
 31
0.0
  0
ARC
  5
D88
  8
0
 10
6346.7285962346941233
 20
26418.8630505840701517
 30
0.0
 40
10.0
 50
43.0908480000164289
 51
178.0908479998687142
  0
LINE
  5
D89
  8
0
 10
6336.7341562346564388
 20
26419.1962105841084849
 30
0.0
 11
6335.6856362346443348
 21
26387.7405905840896594
 31
0.0
  0
LINE
  5
D8A
  8
0
 10
6305.3691362346289679
 20
26378.745590584090678
 30
0.0
 11
6325.3580362346838228
 21
26378.0792905840789899
 31
0.0
  0
LINE
  5
D8B
  8
0
 10
6303.9699162346078083
 20
26336.7688905840586813
 30
0.0
 11
6305.3691362346289679
 21
26378.745590584090678
 31
0.0
  0
ARC
  5
D8C
  8
0
 10
6288.3785762346806223
 20
26349.2952705840907583
 30
0.0
 40
20.0
 50
321.2209470000821057
 51
9.1178590000076802
  0
ARC
  5
D8D
  8
0
 10
6317.999516234616749
 20
26354.0492505840702506
 30
0.0
 40
10.0
 50
9.1178590000076802
 51
189.1178550001282019
  0
LINE
  5
D8E
  8
_0-3_
 62
     2
 10
5478.3785762346824413
 20
26315.3174905840714928
 30
0.0
 11
5478.3785762346824413
 21
26195.3174905840714928
 31
0.0
  0
LINE
  5
D8F
  8
_0-3_
 62
     2
 10
5978.3785762346824413
 20
26315.3174905840714928
 30
0.0
 11
5978.3785762346824413
 21
26195.3174905840714928
 31
0.0
  0
LINE
  5
D90
  8
0
 10
3013.7366962346709442
 20
26492.8055505840784463
 30
0.0
 11
3023.3979962346488719
 21
26482.4779505840815546
 31
0.0
  0
LINE
  5
D91
  8
0
 10
3105.6856362346447895
 20
26489.7405905840896594
 30
0.0
 11
3095.3580362346260699
 21
26480.0792905840789899
 31
0.0
  0
LINE
  5
D92
  8
0
 10
6243.736696234671399
 20
26390.8055505840711703
 30
0.0
 11
6253.3979962346493267
 21
26380.4779505840597267
 31
0.0
  0
LINE
  5
D93
  8
0
 10
6335.6856362346443348
 20
26387.7405905840896594
 30
0.0
 11
6325.3580362346838228
 21
26378.0792905840789899
 31
0.0
  0
LINE
  5
D94
  8
0
 10
2746.4927762346342206
 20
25525.8944105841001146
 30
0.0
 11
2746.3785762346237789
 21
25524.7293705840711482
 31
0.0
  0
LINE
  5
D95
  8
0
 10
2816.4927762346342206
 20
25519.0331305840809364
 30
0.0
 11
2816.3785762346228694
 21
25517.8681105840587406
 31
0.0
  0
LINE
  5
D96
  8
_0-3_
 62
     2
 10
6508.2593562346301042
 20
25518.8943505841016304
 30
0.0
 11
6508.3785762346824413
 21
25517.704190584099706
 31
0.0
  0
LINE
  5
D97
  8
_0-3_
 62
     2
 10
6578.2593562346310136
 20
25525.9065905840507185
 30
0.0
 11
6578.3785762346806223
 21
25524.7164305840815359
 31
0.0
  0
LINE
  5
D9B
  8
0
 10
4202.3785762346233241
 20
25830.8756994446412136
 30
0.0
 11
4202.3785762346233241
 21
25714.5995136225610622
 31
0.0
  0
LINE
  5
D9C
  8
0
 10
4102.3785762346233241
 20
25830.8756994446412136
 30
0.0
 11
4102.3785762346233241
 21
25714.5995136225610622
 31
0.0
  0
LINE
  5
D9D
  8
0
 10
4152.3785762346242336
 20
25615.3185751835990231
 30
0.0
 11
4202.3785762346233241
 21
25714.5995136225610622
 31
0.0
  0
LINE
  5
D9E
  8
0
 10
4152.3785762346242336
 20
25615.3185751835990231
 30
0.0
 11
4102.3785762346233241
 21
25714.5995136225610622
 31
0.0
  0
ARC
  5
D9F
  8
0
 10
4152.3785762346242336
 20
26141.3174905840714928
 30
0.0
 40
240.0
 50
90.0
 51
105.493968000039402
  0
LINE
  5
DA0
  8
0
  6
HIDDEN
 10
4102.3785762346233241
 20
26315.3174905840714928
 30
0.0
 11
4102.3785762346233241
 21
25840.635699444628699
 31
0.0
  0
ARC
  5
DA1
  8
0
 10
4096.8140962346233209
 20
26341.758470584089082
 30
0.0
 40
32.0
 50
105.493968000039402
 51
174.9999999999160138
  0
LINE
  5
DA2
  8
0
 10
4064.9358562346310464
 20
26344.5474505840684287
 30
0.0
 11
4062.3785762346237789
 21
26315.3174905840714928
 31
0.0
  0
LINE
  5
DA3
  8
0
  6
HIDDEN
 10
4202.3785762346233241
 20
26315.3174905840714928
 30
0.0
 11
4202.3785762346233241
 21
25840.635699444628699
 31
0.0
  0
ARC
  5
DA4
  8
0
 10
4207.9430562346251463
 20
26341.758470584089082
 30
0.0
 40
32.0
 50
5.0000000000839773
 51
74.5060319999606264
  0
ARC
  5
DA5
  8
0
 10
4152.3785762346242336
 20
26141.3174905840714928
 30
0.0
 40
240.0
 50
74.5060319999606264
 51
90.0
  0
LINE
  5
DA6
  8
0
 10
4239.8212762346365707
 20
26344.5474505840684287
 30
0.0
 11
4242.3785762346233241
 21
26315.3174905840714928
 31
0.0
  0
LINE
  5
DA7
  8
0
 10
4062.3785762346237789
 20
26315.3174905840714928
 30
0.0
 11
4242.3785762346233241
 21
26315.3174905840714928
 31
0.0
  0
LINE
  5
DA8
  8
0
 10
5822.3785762346233241
 20
25830.8756994446412136
 30
0.0
 11
5822.3785762346233241
 21
25714.5995136225610622
 31
0.0
  0
LINE
  5
DA9
  8
0
 10
5722.3785762346824413
 20
25830.8756994446412136
 30
0.0
 11
5722.3785762346824413
 21
25714.5995136225610622
 31
0.0
  0
LINE
  5
DAA
  8
0
 10
5772.3785762346806223
 20
25615.3185751835990231
 30
0.0
 11
5822.3785762346233241
 21
25714.5995136225610622
 31
0.0
  0
LINE
  5
DAB
  8
0
 10
5772.3785762346806223
 20
25615.3185751835990231
 30
0.0
 11
5722.3785762346824413
 21
25714.5995136225610622
 31
0.0
  0
ARC
  5
DAC
  8
0
 10
5772.3785762346806223
 20
26141.3174905840714928
 30
0.0
 40
240.0
 50
90.0
 51
105.493968000039402
  0
LINE
  5
DAD
  8
0
  6
HIDDEN
 10
5722.3785762346824413
 20
26315.3174905840714928
 30
0.0
 11
5722.3785762346824413
 21
25840.635699444628699
 31
0.0
  0
ARC
  5
DAE
  8
0
 10
5716.8140962346797096
 20
26341.758470584089082
 30
0.0
 40
32.0
 50
105.493968000039402
 51
174.9999999999160138
  0
LINE
  5
DAF
  8
0
 10
5684.9358562346305916
 20
26344.5474505840684287
 30
0.0
 11
5682.3785762346824413
 21
26315.3174905840714928
 31
0.0
  0
LINE
  5
DB0
  8
0
  6
HIDDEN
 10
5822.3785762346233241
 20
26315.3174905840714928
 30
0.0
 11
5822.3785762346233241
 21
25840.635699444628699
 31
0.0
  0
ARC
  5
DB1
  8
0
 10
5827.943056234683354
 20
26341.758470584089082
 30
0.0
 40
32.0
 50
5.0000000000839773
 51
74.5060319999606264
  0
ARC
  5
DB2
  8
0
 10
5772.3785762346806223
 20
26141.3174905840714928
 30
0.0
 40
240.0
 50
74.5060319999606264
 51
90.0
  0
LINE
  5
DB3
  8
0
 10
5859.8212762346956879
 20
26344.5474505840684287
 30
0.0
 11
5862.3785762346806223
 21
26315.3174905840714928
 31
0.0
  0
LINE
  5
DB4
  8
0
 10
5682.3785762346824413
 20
26315.3174905840714928
 30
0.0
 11
5862.3785762346806223
 21
26315.3174905840714928
 31
0.0
  0
LINE
  5
DB5
  8
_0-1_
  6
CONTINUOUS
 62
     4
 10
6012.3785762346242336
 20
19700.0
 30
0.0
 11
6012.3785762346242336
 21
26175.3174905841005966
 31
0.0
  0
LINE
  5
DB6
  8
_0-1_
  6
CONTINUOUS
 62
     4
 10
3912.3785762346237789
 20
19700.0
 30
0.0
 11
3912.3785762346237789
 21
26175.3174905841005966
 31
0.0
  0
LINE
  5
DB7
  8
_0-1_
  6
CONTINUOUS
 62
     4
 10
6012.3785762346242336
 20
25575.3174905841005966
 30
0.0
 11
3912.3785762346237789
 21
25575.3174905841005966
 31
0.0
  0
LINE
  5
DB8
  8
_0-1_
  6
CONTINUOUS
 62
     4
 10
3912.3785762346237789
 20
25575.3174905841005966
 30
0.0
 11
6012.3785762346242336
 21
26175.3174905841005966
 31
0.0
  0
LINE
  5
DBB
  8
_0-1_
  6
CONTINUOUS
 62
     4
 10
3552.3785762346237789
 20
19700.0
 30
0.0
 11
3552.3785762346237789
 21
25895.3174905841005966
 31
0.0
  0
LINE
  5
DC0
  8
_0-3_
  6
CONTINUOUS
 62
     2
 10
6312.3785762346242336
 20
25895.3174905841005966
 30
0.0
 11
6012.3785762346242336
 21
25895.3174905841005966
 31
0.0
  0
LINE
  5
DEB
  8
_0-3_
  6
CONTINUOUS
 62
     2
 10
6312.3785762346242336
 20
25895.3174905841005966
 30
0.0
 11
6312.3785762346242336
 21
19700.0
 31
0.0
  0
LINE
  5
DEC
  8
_0-5_
  6
CONTINUOUS
 10
3552.3785762346237789
 20
26175.3174905841005966
 30
0.0
 11
2972.3785762346228694
 21
26175.3174905841005966
 31
0.0
  0
LINE
  5
DED
  8
_0-5_
  6
CONTINUOUS
 10
2972.3785762346228694
 20
26175.3174905841005966
 30
0.0
 11
2972.3785762346228694
 21
25595.3174905841005966
 31
0.0
  0
LINE
  5
DEE
  8
_0-5_
  6
CONTINUOUS
 10
2972.3785762346228694
 20
25595.3174905841005966
 30
0.0
 11
3252.3785762346237789
 21
25595.3174905841005966
 31
0.0
  0
LINE
  5
DEF
  8
_0-5_
  6
CONTINUOUS
 10
3252.3785762346237789
 20
25595.3174905841005966
 30
0.0
 11
3252.3785762346237789
 21
25895.3174905841005966
 31
0.0
  0
LINE
  5
DF0
  8
_0-5_
  6
CONTINUOUS
 10
3252.3785762346237789
 20
25895.3174905841005966
 30
0.0
 11
3552.3785762346237789
 21
25895.3174905841005966
 31
0.0
  0
LINE
  5
DF1
  8
0
  6
CONTINUOUS
 10
3552.3785762346237789
 20
25895.3174905841005966
 30
0.0
 11
3552.3785762346237789
 21
26175.3174905841005966
 31
0.0
  0
LINE
  5
DF2
  8
_0-5_
  6
CONTINUOUS
 10
3552.3785762346237789
 20
26105.3174905841005966
 30
0.0
 11
3042.3785762346237789
 21
26105.3174905841005966
 31
0.0
  0
LINE
  5
DF3
  8
_0-5_
  6
CONTINUOUS
 10
3252.3785762346237789
 20
25895.3174905841005966
 30
0.0
 11
3252.3785762346237789
 21
26105.3174905841005966
 31
0.0
  0
LINE
  5
DF4
  8
_0-5_
  6
CONTINUOUS
 10
3552.3785762346237789
 20
26035.3174905841005966
 30
0.0
 11
3252.3785762346237789
 21
26035.3174905841005966
 31
0.0
  0
LINE
  5
DF5
  8
_0-5_
  6
CONTINUOUS
 10
3552.3785762346237789
 20
25965.3174905841005966
 30
0.0
 11
3252.3785762346237789
 21
25965.3174905841005966
 31
0.0
  0
LINE
  5
DF6
  8
_0-5_
  6
CONTINUOUS
 10
3252.3785762346237789
 20
25895.3174905841005966
 30
0.0
 11
3042.3785762346237789
 21
25895.3174905841005966
 31
0.0
  0
LINE
  5
DF7
  8
_0-5_
  6
CONTINUOUS
 10
3112.3785762346237789
 20
25595.3174905841005966
 30
0.0
 11
3112.3785762346237789
 21
25895.3174905841005966
 31
0.0
  0
LINE
  5
DF8
  8
_0-5_
  6
CONTINUOUS
 10
3182.3785762346228694
 20
25595.3174905841005966
 30
0.0
 11
3182.3785762346228694
 21
25895.3174905841005966
 31
0.0
  0
LINE
  5
DF9
  8
_0-5_
  6
CONTINUOUS
 10
3042.3785762346237789
 20
25595.3174905841005966
 30
0.0
 11
3042.3785762346237789
 21
26105.3174905841005966
 31
0.0
  0
LINE
  5
DFA
  8
_0-5_
  6
CONTINUOUS
 10
3252.3785762346237789
 20
25835.3174905841005966
 30
0.0
 11
3182.3785762346228694
 21
25835.3174905841005966
 31
0.0
  0
LINE
  5
DFB
  8
_0-5_
  6
CONTINUOUS
 10
3182.3785762346228694
 20
25715.3174905841005966
 30
0.0
 11
3252.3785762346237789
 21
25715.3174905841005966
 31
0.0
  0
LINE
  5
DFC
  8
_0-5_
  6
CONTINUOUS
 10
3182.3785762346228694
 20
25655.3174905841005966
 30
0.0
 11
3252.3785762346237789
 21
25655.3174905841005966
 31
0.0
  0
LINE
  5
DFD
  8
_0-5_
  6
CONTINUOUS
 10
3182.3785762346228694
 20
25775.3174905841005966
 30
0.0
 11
3112.3785762346237789
 21
25775.3174905841005966
 31
0.0
  0
LINE
  5
DFE
  8
_0-5_
  6
CONTINUOUS
 10
3182.3785762346228694
 20
25745.3174905841005966
 30
0.0
 11
3112.3785762346237789
 21
25745.3174905841005966
 31
0.0
  0
LINE
  5
DFF
  8
_0-5_
  6
CONTINUOUS
 10
3112.3785762346237789
 20
25685.3174905841005966
 30
0.0
 11
3182.3785762346228694
 21
25685.3174905841005966
 31
0.0
  0
LINE
  5
E00
  8
_0-5_
  6
CONTINUOUS
 10
3112.3785762346237789
 20
25625.3174905841005966
 30
0.0
 11
3182.3785762346228694
 21
25625.3174905841005966
 31
0.0
  0
LINE
  5
E01
  8
_0-5_
  6
CONTINUOUS
 10
3112.3785762346237789
 20
25855.3174905841005966
 30
0.0
 11
3042.3785762346237789
 21
25855.3174905841005966
 31
0.0
  0
LINE
  5
E02
  8
_0-5_
  6
CONTINUOUS
 10
3042.3785762346237789
 20
25795.3174905841005966
 30
0.0
 11
3112.3785762346237789
 21
25795.3174905841005966
 31
0.0
  0
LINE
  5
E03
  8
_0-5_
  6
CONTINUOUS
 10
3042.3785762346237789
 20
25715.3174905841005966
 30
0.0
 11
3112.3785762346237789
 21
25715.3174905841005966
 31
0.0
  0
LINE
  5
E04
  8
_0-5_
  6
CONTINUOUS
 10
3042.3785762346237789
 20
25655.3174905841005966
 30
0.0
 11
3112.3785762346237789
 21
25655.3174905841005966
 31
0.0
  0
LINE
  5
E05
  8
_0-5_
  6
CONTINUOUS
 10
3182.3785762346228694
 20
25875.3174905841005966
 30
0.0
 11
3112.3785762346237789
 21
25875.3174905841005966
 31
0.0
  0
LINE
  5
E06
  8
_0-5_
  6
CONTINUOUS
 10
2972.3785762346228694
 20
25815.3174905841005966
 30
0.0
 11
3042.3785762346237789
 21
25815.3174905841005966
 31
0.0
  0
LINE
  5
E07
  8
_0-5_
  6
CONTINUOUS
 10
2972.3785762346228694
 20
25775.3174905841005966
 30
0.0
 11
3042.3785762346237789
 21
25775.3174905841005966
 31
0.0
  0
LINE
  5
E08
  8
_0-5_
  6
CONTINUOUS
 10
2972.3785762346228694
 20
25695.3174905841005966
 30
0.0
 11
3042.3785762346237789
 21
25695.3174905841005966
 31
0.0
  0
LINE
  5
E09
  8
_0-5_
  6
CONTINUOUS
 10
2972.3785762346228694
 20
25635.3174905841005966
 30
0.0
 11
3042.3785762346237789
 21
25635.3174905841005966
 31
0.0
  0
LINE
  5
E0A
  8
_0-5_
  6
CONTINUOUS
 10
3492.3785762346228694
 20
25895.3174905841005966
 30
0.0
 11
3492.3785762346228694
 21
25965.3174905841005966
 31
0.0
  0
LINE
  5
E0B
  8
_0-5_
  6
CONTINUOUS
 10
3372.3785762346228694
 20
25965.3174905841005966
 30
0.0
 11
3372.3785762346228694
 21
25895.3174905841005966
 31
0.0
  0
LINE
  5
E0C
  8
_0-5_
  6
CONTINUOUS
 10
3312.3785762346228694
 20
25965.3174905841005966
 30
0.0
 11
3312.3785762346228694
 21
25895.3174905841005966
 31
0.0
  0
LINE
  5
E0D
  8
_0-5_
  6
CONTINUOUS
 10
3432.3785762346228694
 20
25965.3174905841005966
 30
0.0
 11
3432.3785762346228694
 21
26035.3174905841005966
 31
0.0
  0
LINE
  5
E0E
  8
_0-5_
  6
CONTINUOUS
 10
3402.3785762346237789
 20
25965.3174905841005966
 30
0.0
 11
3402.3785762346237789
 21
26035.3174905841005966
 31
0.0
  0
LINE
  5
E0F
  8
_0-5_
  6
CONTINUOUS
 10
3342.3785762346237789
 20
26035.3174905841005966
 30
0.0
 11
3342.3785762346237789
 21
25965.3174905841005966
 31
0.0
  0
LINE
  5
E10
  8
_0-5_
  6
CONTINUOUS
 10
3282.3785762346237789
 20
26035.3174905841005966
 30
0.0
 11
3282.3785762346237789
 21
25965.3174905841005966
 31
0.0
  0
LINE
  5
E11
  8
_0-5_
  6
CONTINUOUS
 10
3512.3785762346237789
 20
26035.3174905841005966
 30
0.0
 11
3512.3785762346237789
 21
26105.3174905841005966
 31
0.0
  0
LINE
  5
E12
  8
_0-5_
  6
CONTINUOUS
 10
3452.3785762346237789
 20
26105.3174905841005966
 30
0.0
 11
3452.3785762346237789
 21
26035.3174905841005966
 31
0.0
  0
LINE
  5
E13
  8
_0-5_
  6
CONTINUOUS
 10
3372.3785762346228694
 20
26105.3174905841005966
 30
0.0
 11
3372.3785762346228694
 21
26035.3174905841005966
 31
0.0
  0
LINE
  5
E14
  8
_0-5_
  6
CONTINUOUS
 10
3312.3785762346228694
 20
26105.3174905841005966
 30
0.0
 11
3312.3785762346228694
 21
26035.3174905841005966
 31
0.0
  0
LINE
  5
E15
  8
_0-5_
  6
CONTINUOUS
 10
3532.3785762346237789
 20
25965.3174905841005966
 30
0.0
 11
3532.3785762346237789
 21
26035.3174905841005966
 31
0.0
  0
LINE
  5
E16
  8
_0-5_
  6
CONTINUOUS
 10
3472.3785762346228694
 20
26175.3174905841005966
 30
0.0
 11
3472.3785762346228694
 21
26105.3174905841005966
 31
0.0
  0
LINE
  5
E17
  8
_0-5_
  6
CONTINUOUS
 10
3432.3785762346228694
 20
26175.3174905841005966
 30
0.0
 11
3432.3785762346228694
 21
26105.3174905841005966
 31
0.0
  0
LINE
  5
E18
  8
_0-5_
  6
CONTINUOUS
 10
3352.3785762346237789
 20
26175.3174905841005966
 30
0.0
 11
3352.3785762346237789
 21
26105.3174905841005966
 31
0.0
  0
LINE
  5
E19
  8
_0-5_
  6
CONTINUOUS
 10
3292.3785762346237789
 20
26175.3174905841005966
 30
0.0
 11
3292.3785762346237789
 21
26105.3174905841005966
 31
0.0
  0
LINE
  5
E1A
  8
_0-5_
  6
CONTINUOUS
 10
3042.3785762346237789
 20
26105.3174905841005966
 30
0.0
 11
2972.3785762346228694
 21
26175.3174905841005966
 31
0.0
  0
LINE
  5
E1B
  8
_0-3_
  6
CONTINUOUS
 62
     2
 10
3252.3785762346237789
 20
25595.3174905841005966
 30
0.0
 11
3252.3785762348288699
 21
19700.0
 31
0.0
  0
LINE
  5
E4A
  8
ﾚｲﾔ1
 10
11638.049264698929619
 20
24211.9841505840886384
 30
0.0
 11
11678.049264698929619
 21
24211.9841505840886384
 31
0.0
  0
LINE
  5
E4B
  8
ﾚｲﾔ1
 10
11638.049264698929619
 20
24211.9841505840886384
 30
0.0
 11
11638.049264698929619
 21
25638.6508305840616231
 31
0.0
  0
LINE
  5
E4C
  8
ﾚｲﾔ1
 10
11638.049264698929619
 20
25638.6508305840616231
 30
0.0
 11
11678.049264698929619
 21
25638.6508305840616231
 31
0.0
  0
ARC
  5
E4D
  8
ﾚｲﾔ1
 10
12464.7159446989207936
 20
25568.6508305840616231
 30
0.0
 40
6.6666600000000003
 50
0.0
 51
90.0
  0
LINE
  5
E4E
  8
ﾚｲﾔ1
 10
12471.3826046989306633
 20
25568.6508305840616231
 30
0.0
 11
12471.3826046989306633
 21
24281.9841505840886384
 31
0.0
  0
ARC
  5
E4F
  8
ﾚｲﾔ1
 10
12464.7159446989207936
 20
24281.9841505840886384
 30
0.0
 40
6.6666600000000003
 50
270.0
 51
0.0
  0
LINE
  5
E50
  8
ﾚｲﾔ1
 10
11678.049264698929619
 20
24275.3174905841005966
 30
0.0
 11
12464.7159446989207936
 21
24275.3174905841005966
 31
0.0
  0
LINE
  5
E51
  8
ﾚｲﾔ1
 10
11678.049264698929619
 20
25575.3174905841005966
 30
0.0
 11
12464.7159446989207936
 21
25575.3174905841005966
 31
0.0
  0
LINE
  5
E52
  8
ﾚｲﾔ9
 62
     0
 10
11678.049264698929619
 20
25551.9841505840886384
 30
0.0
 11
12471.3826046989306633
 21
25551.9841505840886384
 31
0.0
  0
LINE
  5
E53
  8
ﾚｲﾔ9
 62
     0
 10
11678.049264698929619
 20
24298.6508305840507091
 30
0.0
 11
12448.0426046989305178
 21
24298.6508305840507091
 31
0.0
  0
LINE
  5
E54
  8
_0-0_
  6
CONTINUOUS
 62
     7
 10
11678.049264698929619
 20
24211.9841505840886384
 30
0.0
 11
11678.049264698929619
 21
25638.6508305840616231
 31
0.0
  0
LINE
  5
E55
  8
ﾚｲﾔ9
 62
     0
 10
12448.0426046989305178
 20
24298.6508305840507091
 30
0.0
 11
12448.0426046989305178
 21
24698.6508305840507091
 31
0.0
  0
LINE
  5
E56
  8
ﾚｲﾔ9
  6
CONTINUOUS
 62
     0
 10
12448.0426046989305178
 20
24698.6508305840507091
 30
0.0
 11
12471.3826046989306633
 21
24698.6508305840507091
 31
0.0
  0
LINE
  5
E8F
  8
_0-2_
  6
DASHED1
 62
     7
 10
11658.049264698929619
 20
26175.3174905840787687
 30
0.0
 11
11658.049264698929619
 21
19707.4876216971788381
 31
0.0
  0
LINE
  5
E97
  8
_0-2_
  6
DASHED1
 62
     7
 10
13798.049264698929619
 20
26175.3174905841005966
 30
0.0
 11
13798.049264698929619
 21
19707.4876216971715621
 31
0.0
  0
LINE
  5
E9F
  8
_0-2_
  6
DASHED1
 62
     7
 10
3892.3785762346228694
 20
26175.3174905840714928
 30
0.0
 11
3892.3785762346228694
 21
19700.0
 31
0.0
  0
LINE
  5
EC6
  8
ﾚｲﾔ1
 10
3872.3785762346228694
 20
24211.9841505840886384
 30
0.0
 11
3912.3785762346237789
 21
24211.9841505840886384
 31
0.0
  0
LINE
  5
EC7
  8
ﾚｲﾔ1
 10
3872.3785762346228694
 20
24211.9841505840886384
 30
0.0
 11
3872.3785762346228694
 21
25638.6508305840616231
 31
0.0
  0
LINE
  5
EC8
  8
ﾚｲﾔ1
 10
3872.3785762346228694
 20
25638.6508305840616231
 30
0.0
 11
3912.3785762346237789
 21
25638.6508305840616231
 31
0.0
  0
ARC
  5
EC9
  8
ﾚｲﾔ1
 10
4699.0452562346181367
 20
25568.6508305840616231
 30
0.0
 40
6.6666600000000003
 50
0.0
 51
90.0
  0
LINE
  5
ECA
  8
ﾚｲﾔ1
 10
4705.7119162346207304
 20
25568.6508305840616231
 30
0.0
 11
4705.7119162346207304
 21
24281.9841505840886384
 31
0.0
  0
ARC
  5
ECB
  8
ﾚｲﾔ1
 10
4699.0452562346181367
 20
24281.9841505840886384
 30
0.0
 40
6.6666600000000003
 50
270.0
 51
0.0
  0
LINE
  5
ECC
  8
ﾚｲﾔ1
 10
3912.3785762346237789
 20
24275.3174905841005966
 30
0.0
 11
4699.0452562346181367
 21
24275.3174905841005966
 31
0.0
  0
LINE
  5
ECD
  8
ﾚｲﾔ1
 10
3912.3785762346237789
 20
25575.3174905841005966
 30
0.0
 11
4699.0452562346181367
 21
25575.3174905841005966
 31
0.0
  0
LINE
  5
ECE
  8
ﾚｲﾔ9
 62
     0
 10
3912.3785762346237789
 20
25551.9841505840886384
 30
0.0
 11
4705.7119162346207304
 21
25551.9841505840886384
 31
0.0
  0
LINE
  5
ECF
  8
ﾚｲﾔ9
 62
     0
 10
3912.3785762346237789
 20
24298.6508305840507091
 30
0.0
 11
4682.3719162346242229
 21
24298.6508305840507091
 31
0.0
  0
LINE
  5
ED0
  8
_0-0_
  6
CONTINUOUS
 62
     7
 10
3912.3785762346237789
 20
24211.9841505840886384
 30
0.0
 11
3912.3785762346237789
 21
25638.6508305840616231
 31
0.0
  0
LINE
  5
ED1
  8
ﾚｲﾔ9
 62
     0
 10
4682.3719162346242229
 20
24298.6508305840507091
 30
0.0
 11
4682.3719162346242229
 21
24698.6508305840507091
 31
0.0
  0
LINE
  5
ED2
  8
ﾚｲﾔ9
  6
CONTINUOUS
 62
     0
 10
4682.3719162346242229
 20
24698.6508305840507091
 30
0.0
 11
4705.7119162346207304
 21
24698.6508305840507091
 31
0.0
  0
LINE
  5
EE3
  8
_0-5_
  6
CONTINUOUS
 10
10808.0492392886608286
 20
25965.3175016164314002
 30
0.0
 11
10738.0492392886608286
 21
25965.3175016164314002
 31
0.0
  0
LINE
  5
EE4
  8
_0-5_
  6
CONTINUOUS
 10
10808.0492392886608286
 20
25935.3175016164314002
 30
0.0
 11
10738.0492392886608286
 21
25935.3175016164314002
 31
0.0
  0
LINE
  5
EE5
  8
_0-5_
  6
CONTINUOUS
 10
10738.0492392886608286
 20
25875.3175016164314002
 30
0.0
 11
10808.0492392886608286
 21
25875.3175016164314002
 31
0.0
  0
LINE
  5
EE6
  8
_0-5_
  6
CONTINUOUS
 10
10808.0492392886608286
 20
26065.3175016164314002
 30
0.0
 11
10738.0492392886608286
 21
26065.3175016164314002
 31
0.0
  0
LINE
  5
EE7
  8
_0-5_
  6
CONTINUOUS
 10
10958.0493261319206795
 20
26105.3174996530287899
 30
0.0
 11
10958.0493261319206795
 21
26175.3174996530287899
 31
0.0
  0
LINE
  5
EE8
  8
_0-5_
  6
CONTINUOUS
 10
10928.0493261319206795
 20
26105.3174996530287899
 30
0.0
 11
10928.0493261319206795
 21
26175.3174996530287899
 31
0.0
  0
LINE
  5
EE9
  8
_0-5_
  6
CONTINUOUS
 10
10868.0493261319206795
 20
26175.3174996530287899
 30
0.0
 11
10868.0493261319206795
 21
26105.3174996530287899
 31
0.0
  0
LINE
  5
EEA
  8
_0-5_
  6
CONTINUOUS
 10
10808.0493261319206795
 20
26175.3174996530287899
 30
0.0
 11
10808.0493261319206795
 21
26105.3174996530287899
 31
0.0
  0
LINE
  5
EFB
  8
_0-5_
  6
CONTINUOUS
 10
3042.3785508243531694
 20
25965.3175016164314002
 30
0.0
 11
2972.3785508243531694
 21
25965.3175016164314002
 31
0.0
  0
LINE
  5
EFC
  8
_0-5_
  6
CONTINUOUS
 10
3042.3785508243531694
 20
25935.3175016164314002
 30
0.0
 11
2972.3785508243531694
 21
25935.3175016164314002
 31
0.0
  0
LINE
  5
EFD
  8
_0-5_
  6
CONTINUOUS
 10
2972.3785508243531694
 20
25875.3175016164314002
 30
0.0
 11
3042.3785508243531694
 21
25875.3175016164314002
 31
0.0
  0
LINE
  5
EFE
  8
_0-5_
  6
CONTINUOUS
 10
3042.3785508243531694
 20
26065.3175016164314002
 30
0.0
 11
2972.3785508243531694
 21
26065.3175016164314002
 31
0.0
  0
LINE
  5
EFF
  8
_0-5_
  6
CONTINUOUS
 10
3192.3786376676139298
 20
26105.3174996530287899
 30
0.0
 11
3192.3786376676139298
 21
26175.3174996530287899
 31
0.0
  0
LINE
  5
F00
  8
_0-5_
  6
CONTINUOUS
 10
3162.3786376676148393
 20
26105.3174996530287899
 30
0.0
 11
3162.3786376676148393
 21
26175.3174996530287899
 31
0.0
  0
LINE
  5
F01
  8
_0-5_
  6
CONTINUOUS
 10
3102.3786376676148393
 20
26175.3174996530287899
 30
0.0
 11
3102.3786376676148393
 21
26105.3174996530287899
 31
0.0
  0
LINE
  5
F02
  8
_0-5_
  6
CONTINUOUS
 10
3042.3786376676139298
 20
26175.3174996530287899
 30
0.0
 11
3042.3786376676139298
 21
26105.3174996530287899
 31
0.0
  0
LINE
  5
F13
  8
_0-5_
  6
CONTINUOUS
 10
14648.0492901092002285
 20
25965.3175016164314002
 30
0.0
 11
14718.0492901092002285
 21
25965.3175016164314002
 31
0.0
  0
LINE
  5
F14
  8
_0-5_
  6
CONTINUOUS
 10
14648.0492901092002285
 20
25935.3175016164314002
 30
0.0
 11
14718.0492901092002285
 21
25935.3175016164314002
 31
0.0
  0
LINE
  5
F15
  8
_0-5_
  6
CONTINUOUS
 10
14718.0492901092002285
 20
25875.3175016164314002
 30
0.0
 11
14648.0492901092002285
 21
25875.3175016164314002
 31
0.0
  0
LINE
  5
F16
  8
_0-5_
  6
CONTINUOUS
 10
14648.0492901092002285
 20
26065.3175016164314002
 30
0.0
 11
14718.0492901092002285
 21
26065.3175016164314002
 31
0.0
  0
LINE
  5
F17
  8
_0-5_
  6
CONTINUOUS
 10
14498.0492032659403776
 20
26105.3174996530287899
 30
0.0
 11
14498.0492032659403776
 21
26175.3174996530287899
 31
0.0
  0
LINE
  5
F18
  8
_0-5_
  6
CONTINUOUS
 10
14528.0492032659403776
 20
26105.3174996530287899
 30
0.0
 11
14528.0492032659403776
 21
26175.3174996530287899
 31
0.0
  0
LINE
  5
F19
  8
_0-5_
  6
CONTINUOUS
 10
14588.0492032659403776
 20
26175.3174996530287899
 30
0.0
 11
14588.0492032659403776
 21
26105.3174996530287899
 31
0.0
  0
LINE
  5
F1A
  8
_0-5_
  6
CONTINUOUS
 10
14648.0492032659403776
 20
26175.3174996530287899
 30
0.0
 11
14648.0492032659403776
 21
26105.3174996530287899
 31
0.0
  0
LINE
  5
F45
  8
_1-5_
  6
CONTINUOUS
 62
     7
 10
3182.3785762346228694
 20
25595.3174905841005966
 30
0.0
 11
2681.9455078502069227
 21
24728.5419903547008289
 31
0.0
  0
LINE
  5
F46
  8
_1-5_
  6
CONTINUOUS
 62
     7
 10
2681.9455078502069227
 20
24728.5419903547008289
 30
0.0
 11
2481.9455078502069227
 21
24728.5419903547008289
 31
0.0
  0
SOLID
  5
F47
  8
_1-5_
  6
CONTINUOUS
 62
     7
 10
3182.3785762346228694
 20
25595.3174905841005966
 30
0.0
 11
3113.1792552614060696
 21
25519.7996833377983421
 31
0.0
 12
3132.3785762346237789
 22
25508.7149502056490746
 32
0.0
 13
3132.3785762346237789
 23
25508.7149502056490746
 33
0.0
  0
LINE
  5
F48
  8
_1-5_
  6
CONTINUOUS
 62
     7
 10
3182.3785762346228694
 20
25595.3174905841005966
 30
0.0
 11
3113.1792552614060696
 21
25519.7996833377983421
 31
0.0
  0
LINE
  5
F49
  8
_1-5_
  6
CONTINUOUS
 62
     7
 10
3113.1792552614060696
 20
25519.7996833377983421
 30
0.0
 11
3132.3785762346237789
 21
25508.7149502056490746
 31
0.0
  0
TEXT
  5
F4A
  8
_1-5_
 62
     5
 10
892.0963059404167552
 20
24628.5419903547008289
 30
0.0
 40
200.0
  1
アイテーエル
  0
LINE
  5
F4B
  8
_1-5_
  6
CONTINUOUS
 62
     7
 10
4047.3499109075642082
 20
24275.3174905841005966
 30
0.0
 11
3306.6463057197770468
 21
22992.3812130494115991
 31
0.0
  0
LINE
  5
F4C
  8
_1-5_
  6
CONTINUOUS
 62
     7
 10
3306.6463057197770468
 20
22992.3812130494115991
 30
0.0
 11
3106.6463057197761373
 21
22992.3812130494115991
 31
0.0
  0
SOLID
  5
F4D
  8
_1-5_
  6
CONTINUOUS
 62
     7
 10
4047.3499109075642082
 20
24275.3174905841005966
 30
0.0
 11
3978.1505899343469537
 21
24199.7996833377983421
 31
0.0
 12
3997.3499109075642082
 22
24188.7149502056490746
 32
0.0
 13
3997.3499109075642082
 23
24188.7149502056490746
 33
0.0
  0
LINE
  5
F4E
  8
_1-5_
  6
CONTINUOUS
 62
     7
 10
4047.3499109075642082
 20
24275.3174905841005966
 30
0.0
 11
3978.1505899343469537
 21
24199.7996833377983421
 31
0.0
  0
TEXT
  5
F4F
  8
_1-5_
 62
     5
 10
1584.2996340993920512
 20
22892.3812130494115991
 30
0.0
 40
200.0
  1
通気カプラー
  0
LINE
  5
F50
  8
_1-5_
  6
CONTINUOUS
 62
     7
 10
3871.0575451155891642
 20
25565.0289400440815371
 30
0.0
 11
3130.3539399278020028
 21
24282.0926625093889015
 31
0.0
  0
LINE
  5
F51
  8
_1-5_
  6
CONTINUOUS
 62
     7
 10
3130.3539399278020028
 20
24282.0926625093889015
 30
0.0
 11
2930.3539399278010933
 21
24282.0926625093889015
 31
0.0
  0
SOLID
  5
F52
  8
_1-5_
  6
CONTINUOUS
 62
     7
 10
3871.0575451155891642
 20
25565.0289400440815371
 30
0.0
 11
3801.8582241423719097
 21
25489.5111327977901965
 31
0.0
 12
3821.0575451155891642
 22
25478.4263996656300151
 32
0.0
 13
3821.0575451155891642
 23
25478.4263996656300151
 33
0.0
  0
TEXT
  5
F53
  8
_1-5_
 62
     5
 10
1174.2167236127791057
 20
24182.0926625093889015
 30
0.0
 40
200.0
  1
防水テープ処理
  0
LINE
  5
F54
  8
_1-5_
  6
CONTINUOUS
 62
     7
 10
3871.0575451155928022
 20
24282.0926625093889015
 30
0.0
 11
3130.3539399278020028
 21
24282.0926625093889015
 31
0.0
  0
SOLID
  5
F55
  8
_1-5_
  6
CONTINUOUS
 62
     7
 10
3871.0575451155928022
 20
24282.0926625093889015
 30
0.0
 11
3771.0575451155918927
 21
24304.2621287736801605
 31
0.0
 12
3771.0575451155891642
 22
24282.0926625093816256
 32
0.0
 13
3771.0575451155891642
 23
24282.0926625093816256
 33
0.0
  0
LINE
  5
F6D
  8
_1-5_
  6
CONTINUOUS
 62
     7
 10
10948.049264698929619
 20
25595.3174905841005966
 30
0.0
 11
10447.6161963145095797
 21
24728.5419903547008289
 31
0.0
  0
LINE
  5
F6E
  8
_1-5_
  6
CONTINUOUS
 62
     7
 10
10447.6161963145095797
 20
24728.5419903547008289
 30
0.0
 11
10247.6161963145095797
 21
24728.5419903547008289
 31
0.0
  0
SOLID
  5
F6F
  8
_1-5_
  6
CONTINUOUS
 62
     7
 10
10948.049264698929619
 20
25595.3174905841005966
 30
0.0
 11
10878.8499437257105456
 21
25519.7996833377983421
 31
0.0
 12
10898.049264698929619
 22
25508.7149502056490746
 32
0.0
 13
10898.049264698929619
 23
25508.7149502056490746
 33
0.0
  0
LINE
  5
F70
  8
_1-5_
  6
CONTINUOUS
 62
     7
 10
10948.049264698929619
 20
25595.3174905841005966
 30
0.0
 11
10878.8499437257105456
 21
25519.7996833377983421
 31
0.0
  0
LINE
  5
F71
  8
_1-5_
  6
CONTINUOUS
 62
     7
 10
10878.8499437257105456
 20
25519.7996833377983421
 30
0.0
 11
10898.049264698929619
 21
25508.7149502056490746
 31
0.0
  0
TEXT
  5
F72
  8
_1-5_
 62
     5
 10
8657.7669944047211175
 20
24628.5419903547008289
 30
0.0
 40
200.0
  1
アイテーエル
  0
LINE
  5
F73
  8
_1-5_
  6
CONTINUOUS
 62
     7
 10
11864.0657913903705776
 20
24275.3174905841005966
 30
0.0
 11
11123.3621862025793234
 21
22992.3812130494115991
 31
0.0
  0
LINE
  5
F74
  8
_1-5_
  6
CONTINUOUS
 62
     7
 10
11123.3621862025793234
 20
22992.3812130494115991
 30
0.0
 11
10923.3621862025793234
 21
22992.3812130494115991
 31
0.0
  0
SOLID
  5
F75
  8
_1-5_
  6
CONTINUOUS
 62
     7
 10
11864.0657913903705776
 20
24275.3174905841005966
 30
0.0
 11
11794.8664704171496851
 21
24199.7996833377983421
 31
0.0
 12
11814.0657913903705776
 22
24188.7149502056490746
 32
0.0
 13
11814.0657913903705776
 23
24188.7149502056490746
 33
0.0
  0
LINE
  5
F76
  8
_1-5_
  6
CONTINUOUS
 62
     7
 10
11864.0657913903705776
 20
24275.3174905841005966
 30
0.0
 11
11794.8664704171496851
 21
24199.7996833377983421
 31
0.0
  0
TEXT
  5
F77
  8
_1-5_
 62
     5
 10
9401.0155145821991027
 20
22892.3812130494115991
 30
0.0
 40
200.0
  1
通気カプラー
  0
LINE
  5
F78
  8
_1-5_
  6
CONTINUOUS
 62
     7
 10
11635.877947463939563
 20
25565.1757510674215155
 30
0.0
 11
10895.1743422761501279
 21
24282.2394735327288799
 31
0.0
  0
LINE
  5
F79
  8
_1-5_
  6
CONTINUOUS
 62
     7
 10
10895.1743422761501279
 20
24282.2394735327288799
 30
0.0
 11
10695.1743422761501279
 21
24282.2394735327288799
 31
0.0
  0
SOLID
  5
F7A
  8
_1-5_
  6
CONTINUOUS
 62
     7
 10
11635.877947463939563
 20
25565.1757510674215155
 30
0.0
 11
11566.6786264907204895
 21
25489.657943821119261
 31
0.0
 12
11585.877947463939563
 22
25478.5732106889699935
 32
0.0
 13
11585.877947463939563
 23
25478.5732106889699935
 33
0.0
  0
TEXT
  5
F7B
  8
_1-5_
 62
     5
 10
8939.0371259611329151
 20
24182.2394735327288799
 30
0.0
 40
200.0
  1
防水テープ処理
  0
LINE
  5
F7C
  8
_1-5_
  6
CONTINUOUS
 62
     7
 10
11635.877947463950477
 20
24282.2394735327288799
 30
0.0
 11
10895.1743422761501279
 21
24282.2394735327288799
 31
0.0
  0
SOLID
  5
F7D
  8
_1-5_
  6
CONTINUOUS
 62
     7
 10
11635.877947463950477
 20
24282.2394735327288799
 30
0.0
 11
11535.877947463950477
 21
24304.4089397970201389
 31
0.0
 12
11535.877947463939563
 22
24282.2394735327288799
 32
0.0
 13
11535.877947463939563
 23
24282.2394735327288799
 33
0.0
  0
LINE
  5
F9F
  8
_0-2_
  6
DASHED1
 62
     7
 10
14718.049264698929619
 20
26185.3174905841005966
 30
0.0
 11
10738.049264698929619
 21
26185.3174905841005966
 31
0.0
  0
LINE
  5
FA7
  8
_0-2_
  6
DASHED1
 62
     7
 10
6012.3785762346242336
 20
26185.3174516277395014
 30
0.0
 11
2972.378646718921118
 21
26185.3174516277395014
 31
0.0
  0
LINE
  5
FC1
  8
_1-5_
  6
CONTINUOUS
 62
     7
 10
11123.8556070157901559
 20
26565.2257377120004094
 30
0.0
 11
11624.2886754002101952
 21
27432.0012379414001771
 31
0.0
  0
LINE
  5
FC2
  8
_1-5_
  6
CONTINUOUS
 62
     7
 10
11624.2886754002101952
 20
27432.0012379414001771
 30
0.0
 11
11824.2886754002101952
 21
27432.0012379414001771
 31
0.0
  0
SOLID
  5
FC3
  8
_1-5_
  6
CONTINUOUS
 62
     7
 10
11123.8556070157901559
 20
26565.2257377120004094
 30
0.0
 11
11193.0549279890092293
 21
26640.7435449582917499
 31
0.0
 12
11173.8556070157901559
 22
26651.8282780904410174
 32
0.0
 13
11173.8556070157901559
 23
26651.8282780904410174
 33
0.0
  0
LINE
  5
FC4
  8
_1-5_
  6
CONTINUOUS
 62
     7
 10
11123.8556070157901559
 20
26565.2257377120004094
 30
0.0
 11
11193.0549279890092293
 21
26640.7435449582917499
 31
0.0
  0
LINE
  5
FC5
  8
_1-5_
  6
CONTINUOUS
 62
     7
 10
11193.0549279890092293
 20
26640.7435449582917499
 30
0.0
 11
11173.8556070157901559
 21
26651.8282780904410174
 31
0.0
  0
TEXT
  5
FCD
  8
_1-5_
 62
     5
 10
11877.1637173043691291
 20
27342.3245103639201261
 30
0.0
 40
200.0
  1
ステンレス笠木
  0
LINE
  5
FEC
  8
_1-5_
  6
CONTINUOUS
 62
     7
 10
13055.2919543563602929
 20
26315.317460886988556
 30
0.0
 11
13555.7250227407803322
 21
27182.0929611163992377
 31
0.0
  0
LINE
  5
FED
  8
_1-5_
  6
CONTINUOUS
 62
     7
 10
13555.7250227407803322
 20
27182.0929611163992377
 30
0.0
 11
13755.7250227407803322
 21
27182.0929611163992377
 31
0.0
  0
SOLID
  5
FEE
  8
_1-5_
  6
CONTINUOUS
 62
     7
 10
13055.2919543563602929
 20
26315.317460886988556
 30
0.0
 11
13124.4912753295793664
 21
26390.8352681333017244
 31
0.0
 12
13105.2919543563602929
 22
26401.920001265440078
 32
0.0
 13
13105.2919543563602929
 23
26401.920001265440078
 33
0.0
  0
LINE
  5
FEF
  8
_1-5_
  6
CONTINUOUS
 62
     7
 10
13055.2919543563602929
 20
26315.317460886988556
 30
0.0
 11
13124.4912753295793664
 21
26390.8352681333017244
 31
0.0
  0
LINE
  5
FF0
  8
_1-5_
  6
CONTINUOUS
 62
     7
 10
13124.4912753295793664
 20
26390.8352681333017244
 30
0.0
 11
13105.2919543563602929
 21
26401.920001265440078
 31
0.0
  0
TEXT
  5
FF8
  8
_1-5_
 62
     5
 10
13851.7817713701497269
 20
27082.8998410757885722
 30
0.0
 40
200.0
  1
ブラケット
  0
LINE
  5
100B
  8
_1-5_
  6
CONTINUOUS
 62
     7
 10
3310.4298667106818357
 20
26567.5004463739314815
 30
0.0
 11
3810.8629350950977823
 21
27434.2759466033312492
 31
0.0
  0
LINE
  5
100C
  8
_1-5_
  6
CONTINUOUS
 62
     7
 10
3810.8629350950977823
 20
27434.2759466033312492
 30
0.0
 11
4010.8629350950968728
 21
27434.2759466033312492
 31
0.0
  0
SOLID
  5
100D
  8
_1-5_
  6
CONTINUOUS
 62
     7
 10
3310.4298667106818357
 20
26567.5004463739314815
 30
0.0
 11
3379.6291876838990902
 21
26643.0182536202191841
 31
0.0
 12
3360.4298667106818357
 22
26654.1029867523684516
 32
0.0
 13
3360.4298667106818357
 23
26654.1029867523684516
 33
0.0
  0
LINE
  5
100E
  8
_1-5_
  6
CONTINUOUS
 62
     7
 10
3310.4298667106818357
 20
26567.5004463739314815
 30
0.0
 11
3379.6291876838990902
 21
26643.0182536202191841
 31
0.0
  0
LINE
  5
100F
  8
_1-5_
  6
CONTINUOUS
 62
     7
 10
3379.6291876838990902
 20
26643.0182536202191841
 30
0.0
 11
3360.4298667106818357
 21
26654.1029867523684516
 31
0.0
  0
TEXT
  5
1010
  8
_1-5_
 62
     5
 10
4063.7379769992548972
 20
27344.5992190258511982
 30
0.0
 40
200.0
  1
ステンレス笠木
  0
LINE
  5
1011
  8
_1-5_
  6
CONTINUOUS
 62
     7
 10
5314.9808950643046046
 20
26315.3174905840714928
 30
0.0
 11
5815.4139634487219155
 21
27182.0929908134785364
 31
0.0
  0
LINE
  5
1012
  8
_1-5_
  6
CONTINUOUS
 62
     7
 10
5815.4139634487219155
 20
27182.0929908134785364
 30
0.0
 11
6015.4139634487219155
 21
27182.0929908134785364
 31
0.0
  0
SOLID
  5
1013
  8
_1-5_
  6
CONTINUOUS
 62
     7
 10
5314.9808950643046046
 20
26315.3174905840714928
 30
0.0
 11
5384.1802160375227686
 21
26390.8352978303701093
 31
0.0
 12
5364.9808950643064236
 22
26401.9200309625193768
 32
0.0
 13
5364.9808950643064236
 23
26401.9200309625193768
 33
0.0
  0
LINE
  5
1014
  8
_1-5_
  6
CONTINUOUS
 62
     7
 10
5314.9808950643046046
 20
26315.3174905840714928
 30
0.0
 11
5384.1802160375227686
 21
26390.8352978303701093
 31
0.0
  0
LINE
  5
1015
  8
_1-5_
  6
CONTINUOUS
 62
     7
 10
5384.1802160375227686
 20
26390.8352978303701093
 30
0.0
 11
5364.9808950643064236
 21
26401.9200309625193768
 31
0.0
  0
TEXT
  5
1016
  8
_1-5_
 62
     5
 10
6111.4707120780913101
 20
27082.899870772871509
 30
0.0
 40
200.0
  1
ブラケット
  0
LINE
  5
1038
  8
_0-0_
  6
CENTER1
 62
     4
 10
4962.3785762346233241
 20
29400.0
 30
0.0
 11
4962.3785762346233241
 21
19700.0
 31
0.0
  0
LINE
  5
1664
  8
ﾚｲﾔ1
 10
21062.802420308249566
 20
21398.0181406221308862
 30
0.0
 11
21022.802420308249566
 21
21398.0181406221308862
 31
0.0
  0
LINE
  5
1665
  8
ﾚｲﾔ1
 10
21062.802420308249566
 20
21398.0181406221308862
 30
0.0
 11
21062.802420308249566
 21
22824.6848206220893189
 31
0.0
  0
LINE
  5
1666
  8
ﾚｲﾔ1
 10
21062.802420308249566
 20
22824.6848206220893189
 30
0.0
 11
21022.802420308249566
 21
22824.6848206220893189
 31
0.0
  0
ARC
  5
1667
  8
ﾚｲﾔ1
 10
20236.1357403082583915
 20
22754.6848206220893189
 30
0.0
 40
6.6666600000000003
 50
90.0
 51
180.0
  0
LINE
  5
1668
  8
ﾚｲﾔ1
 10
20229.4690803082594357
 20
22754.6848206220893189
 30
0.0
 11
20229.4690803082594357
 21
21468.0181406221199722
 31
0.0
  0
ARC
  5
1669
  8
ﾚｲﾔ1
 10
20236.1357403082583915
 20
21468.0181406221199722
 30
0.0
 40
6.6666600000000003
 50
180.0
 51
270.0
  0
LINE
  5
166A
  8
ﾚｲﾔ1
 10
21022.802420308249566
 20
21461.3514806221392064
 30
0.0
 11
20236.1357403082583915
 21
21461.3514806221392064
 31
0.0
  0
LINE
  5
166B
  8
ﾚｲﾔ1
 10
21022.802420308249566
 20
22761.3514806221392064
 30
0.0
 11
20236.1357403082583915
 21
22761.3514806221392064
 31
0.0
  0
LINE
  5
166C
  8
ﾚｲﾔ9
 62
     0
 10
21022.802420308249566
 20
22738.0181406221199722
 30
0.0
 11
20229.4690803082594357
 21
22738.0181406221199722
 31
0.0
  0
LINE
  5
166D
  8
ﾚｲﾔ9
 62
     0
 10
21022.802420308249566
 20
21484.6848206220893189
 30
0.0
 11
20252.8090803082486673
 21
21484.6848206220893189
 31
0.0
  0
LINE
  5
166E
  8
_0-0_
  6
CONTINUOUS
 62
     7
 10
21022.802420308249566
 20
21398.0181406221308862
 30
0.0
 11
21022.802420308249566
 21
22824.6848206220893189
 31
0.0
  0
LINE
  5
166F
  8
ﾚｲﾔ9
 62
     0
 10
20252.8090803082486673
 20
21484.6848206220893189
 30
0.0
 11
20252.8090803082486673
 21
21884.6848206220893189
 31
0.0
  0
LINE
  5
1670
  8
ﾚｲﾔ9
  6
CONTINUOUS
 62
     0
 10
20252.8090803082486673
 20
21884.6848206220893189
 30
0.0
 11
20229.4690803082594357
 21
21884.6848206220893189
 31
0.0
  0
LINE
  5
1671
  8
_1-5_
  6
CONTINUOUS
 62
     7
 10
20846.2505457950210257
 20
21461.3514806221392064
 30
0.0
 11
21586.9541509828013659
 21
20178.4152030874392949
 31
0.0
  0
LINE
  5
1672
  8
_1-5_
  6
CONTINUOUS
 62
     7
 10
21586.9541509828013659
 20
20178.4152030874392949
 30
0.0
 11
21786.9541509828013659
 21
20178.4152030874392949
 31
0.0
  0
SOLID
  5
1673
  8
_1-5_
  6
CONTINUOUS
 62
     7
 10
20846.2505457950210257
 20
21461.3514806221392064
 30
0.0
 11
20915.4498667682382802
 21
21385.8336733758405899
 31
0.0
 12
20896.2505457950210257
 22
21374.7489402436913224
 32
0.0
 13
20896.2505457950210257
 23
21374.7489402436913224
 33
0.0
  0
LINE
  5
1674
  8
_1-5_
  6
CONTINUOUS
 62
     7
 10
20846.2505457950210257
 20
21461.3514806221392064
 30
0.0
 11
20915.4498667682382802
 21
21385.8336733758405899
 31
0.0
  0
TEXT
  5
1675
  8
_1-5_
 62
     5
 10
21855.2602107387901924
 20
20078.4152030874392949
 30
0.0
 40
200.0
  1
通気カプラー
  0
LINE
  5
1676
  8
_1-5_
  6
CONTINUOUS
 62
     7
 10
21084.3476875486885547
 20
22756.2787777175399242
 30
0.0
 11
21825.0512927364798088
 21
21473.3425001828509266
 31
0.0
  0
LINE
  5
1677
  8
_1-5_
  6
CONTINUOUS
 62
     7
 10
21825.0512927364798088
 20
21473.3425001828509266
 30
0.0
 11
22025.0512927364798088
 21
21473.3425001828509266
 31
0.0
  0
SOLID
  5
1678
  8
_1-5_
  6
CONTINUOUS
 62
     7
 10
21084.3476875486885547
 20
22756.2787777175399242
 30
0.0
 11
21153.5470085218985332
 21
22680.7609704712413077
 31
0.0
 12
21134.3476875486885547
 22
22669.6762373390884022
 32
0.0
 13
21134.3476875486885547
 23
22669.6762373390884022
 33
0.0
  0
TEXT
  5
1679
  8
_1-5_
 62
     5
 10
22081.1260654670186341
 20
21373.3425001828509266
 30
0.0
 40
200.0
  1
防水テープ処理
  0
LINE
  5
167A
  8
_1-5_
  6
CONTINUOUS
 62
     7
 10
21084.3476875486885547
 20
21473.3425001828509266
 30
0.0
 11
21825.0512927364798088
 21
21473.3425001828509266
 31
0.0
  0
SOLID
  5
167B
  8
_1-5_
  6
CONTINUOUS
 62
     7
 10
21084.3476875486885547
 20
21473.3425001828509266
 30
0.0
 11
21184.3476875486885547
 21
21495.5119664471385477
 31
0.0
 12
21184.3476875486885547
 22
21473.3425001828509266
 32
0.0
 13
21184.3476875486885547
 23
21473.3425001828509266
 33
0.0
  0
ENDSEC
  0
EOF
