  0
SECTION
  2
HEADER
  9
$ACADVER
  1
AC1009
  9
$INSBASE
 10
0.0
 20
0.0
 30
0.0
  9
$EXTMIN
 10
-0.0000000000085265
 20
4700.0
 30
0.0
  9
$EXTMAX
 10
56100.5212784590476076
 20
24700.0
 30
0.0
  9
$LIMMIN
 10
0.0
 20
0.0
  9
$LIMMAX
 10
42000.0
 20
29700.0
  9
$ORTHOMODE
 70
     0
  9
$REGENMODE
 70
     1
  9
$FILLMODE
 70
     1
  9
$QTEXTMODE
 70
     0
  9
$MIRRTEXT
 70
     0
  9
$DRAGMODE
 70
     2
  9
$LTSCALE
 40
100.0
  9
$OSMODE
 70
    39
  9
$ATTMODE
 70
     1
  9
$TEXTSIZE
 40
0.2
  9
$TRACEWID
 40
0.05
  9
$TEXTSTYLE
  7
STANDARD
  9
$CLAYER
  8
_0-1_
  9
$CELTYPE
  6
CONTINUOUS
  9
$CECOLOR
 62
     4
  9
$DIMSCALE
 40
1.0
  9
$DIMASZ
 40
0.18
  9
$DIMEXO
 40
0.0625
  9
$DIMDLI
 40
0.38
  9
$DIMRND
 40
0.0
  9
$DIMDLE
 40
0.0
  9
$DIMEXE
 40
0.18
  9
$DIMTP
 40
0.0
  9
$DIMTM
 40
0.0
  9
$DIMTXT
 40
0.18
  9
$DIMCEN
 40
0.09
  9
$DIMTSZ
 40
0.0
  9
$DIMTOL
 70
     0
  9
$DIMLIM
 70
     0
  9
$DIMTIH
 70
     1
  9
$DIMTOH
 70
     1
  9
$DIMSE1
 70
     0
  9
$DIMSE2
 70
     0
  9
$DIMTAD
 70
     0
  9
$DIMZIN
 70
     0
  9
$DIMBLK
  1

  9
$DIMASO
 70
     1
  9
$DIMSHO
 70
     1
  9
$DIMPOST
  1

  9
$DIMAPOST
  1

  9
$DIMALT
 70
     0
  9
$DIMALTD
 70
     2
  9
$DIMALTF
 40
25.3999999999999986
  9
$DIMLFAC
 40
1.0
  9
$DIMTOFL
 70
     0
  9
$DIMTVP
 40
0.0
  9
$DIMTIX
 70
     0
  9
$DIMSOXD
 70
     0
  9
$DIMSAH
 70
     0
  9
$DIMBLK1
  1

  9
$DIMBLK2
  1

  9
$DIMSTYLE
  2
STANDARD
  9
$DIMCLRD
 70
     0
  9
$DIMCLRE
 70
     0
  9
$DIMCLRT
 70
     0
  9
$DIMTFAC
 40
1.0
  9
$DIMGAP
 40
0.09
  9
$LUNITS
 70
     2
  9
$LUPREC
 70
     4
  9
$SKETCHINC
 40
0.1
  9
$FILLETRAD
 40
0.0
  9
$AUNITS
 70
     0
  9
$AUPREC
 70
     0
  9
$MENU
  1
.
  9
$ELEVATION
 40
0.0
  9
$PELEVATION
 40
0.0
  9
$THICKNESS
 40
0.0
  9
$LIMCHECK
 70
     0
  9
$BLIPMODE
 70
     0
  9
$CHAMFERA
 40
0.0
  9
$CHAMFERB
 40
0.0
  9
$SKPOLY
 70
     0
  9
$TDCREATE
 40
2458596.8024074081331491
  9
$TDUPDATE
 40
2458596.8066550930961967
  9
$TDINDWG
 40
0.0031944444
  9
$TDUSRTIMER
 40
0.0031944444
  9
$USRTIMER
 70
     1
  9
$ANGBASE
 50
0.0
  9
$ANGDIR
 70
     0
  9
$PDMODE
 70
     0
  9
$PDSIZE
 40
0.0
  9
$PLINEWID
 40
0.0
  9
$COORDS
 70
     1
  9
$SPLFRAME
 70
     0
  9
$SPLINETYPE
 70
     6
  9
$SPLINESEGS
 70
     8
  9
$ATTDIA
 70
     1
  9
$ATTREQ
 70
     1
  9
$HANDLING
 70
     1
  9
$HANDSEED
  5
7DB
  9
$SURFTAB1
 70
     6
  9
$SURFTAB2
 70
     6
  9
$SURFTYPE
 70
     6
  9
$SURFU
 70
     6
  9
$SURFV
 70
     6
  9
$UCSNAME
  2

  9
$UCSORG
 10
0.0
 20
0.0
 30
0.0
  9
$UCSXDIR
 10
1.0
 20
0.0
 30
0.0
  9
$UCSYDIR
 10
0.0
 20
1.0
 30
0.0
  9
$PUCSNAME
  2

  9
$PUCSORG
 10
0.0
 20
0.0
 30
0.0
  9
$PUCSXDIR
 10
1.0
 20
0.0
 30
0.0
  9
$PUCSYDIR
 10
0.0
 20
1.0
 30
0.0
  9
$USERI1
 70
     0
  9
$USERI2
 70
     0
  9
$USERI3
 70
     0
  9
$USERI4
 70
     0
  9
$USERI5
 70
     0
  9
$USERR1
 40
0.0
  9
$USERR2
 40
0.0
  9
$USERR3
 40
0.0
  9
$USERR4
 40
0.0
  9
$USERR5
 40
0.0
  9
$WORLDVIEW
 70
     1
  9
$SHADEDGE
 70
     3
  9
$SHADEDIF
 70
    70
  9
$TILEMODE
 70
     1
  9
$MAXACTVP
 70
    64
  9
$PLIMCHECK
 70
     0
  9
$PEXTMIN
 10
1.0000000000000000E+20
 20
1.0000000000000000E+20
 30
1.0000000000000000E+20
  9
$PEXTMAX
 10
-1.0000000000000000E+20
 20
-1.0000000000000000E+20
 30
-1.0000000000000000E+20
  9
$PLIMMIN
 10
0.0
 20
0.0
  9
$PLIMMAX
 10
12.0
 20
9.0
  9
$UNITMODE
 70
     0
  9
$VISRETAIN
 70
     1
  9
$PLINEGEN
 70
     0
  9
$PSLTSCALE
 70
     1
  0
ENDSEC
  0
SECTION
  2
TABLES
  0
TABLE
  2
VPORT
 70
     1
  0
VPORT
  2
*ACTIVE
 70
     0
 10
0.0
 20
0.0
 11
1.0
 21
1.0
 12
30100.94227906038941
 22
8347.6392722186938045
 13
0.0
 23
0.0
 14
1.0
 24
1.0
 15
0.0
 25
0.0
 16
0.0
 26
0.0
 36
1.0
 17
0.0
 27
0.0
 37
0.0
 40
42835.2623032163974131
 41
2.7363112391930828
 42
50.0
 43
0.0
 44
0.0
 50
0.0
 51
0.0
 71
     0
 72
   100
 73
     1
 74
     1
 75
     0
 76
     0
 77
     0
 78
     0
  0
ENDTAB
  0
TABLE
  2
LTYPE
 70
    35
  0
LTYPE
  2
CONTINUOUS
 70
     0
  3
実線
 72
    65
 73
     0
 40
0.0
  0
LTYPE
  2
DASHED1
 70
     0
  3
--  --  --  --  --  --  --  --  
 72
    65
 73
     2
 40
2.5
 49
1.25
 49
-1.25
  0
LTYPE
  2
DASHED2
 70
     0
  3
----    ----    ----    ----    
 72
    65
 73
     2
 40
5.0
 49
2.5
 49
-2.5
  0
LTYPE
  2
DASHED3
 70
     0
  3
------  ------  ------  ------  
 72
    65
 73
     2
 40
5.0
 49
3.75
 49
-1.25
  0
LTYPE
  2
CENTER1
 70
     0
  3
----- - ----- - ----- - ----- - 
 72
    65
 73
     4
 40
10.0
 49
6.25
 49
-1.25
 49
1.25
 49
-1.25
  0
LTYPE
  2
CENTER2
 70
     0
  3
----------  --  ----------  --  
 72
    65
 73
     4
 40
20.0
 49
12.5
 49
-2.5
 49
2.5
 49
-2.5
  0
LTYPE
  2
PHANTOM1
 70
     0
  3
--- - - --- - - --- - - --- - - 
 72
    65
 73
     6
 40
10.0
 49
3.25
 49
-1.25
 49
1.25
 49
-1.25
 49
1.25
 49
-1.25
  0
LTYPE
  2
PHANTOM2
 70
     0
  3
--------  -  -  --------  -  -  
 72
    65
 73
     6
 40
20.0
 49
10.0
 49
-2.5
 49
1.25
 49
-2.5
 49
1.25
 49
-2.5
  0
LTYPE
  2
DOT
 70
     0
  3
-   -   -   -   -   -   -   -   
 72
    65
 73
     2
 40
2.5
 49
0.625
 49
-1.875
  0
LTYPE
  2
DUMMY
 70
     0
  3
ダミー
 72
    65
 73
     0
 40
0.0
  0
LTYPE
  2
RAND1
 70
     0
  3
ランダム線1
 72
    65
 73
     4
 40
10.0
 49
1.0
 49
-2.0
 49
3.0
 49
-4.0
  0
LTYPE
  2
RAND2
 70
     0
  3
ランダム線2
 72
    65
 73
     4
 40
14.0
 49
2.0
 49
-3.0
 49
4.0
 49
-5.0
  0
LTYPE
  2
RAND3
 70
     0
  3
ランダム線3
 72
    65
 73
     4
 40
18.0
 49
3.0
 49
-4.0
 49
5.0
 49
-6.0
  0
LTYPE
  2
RAND4
 70
     0
  3
ランダム線4
 72
    65
 73
     4
 40
22.0
 49
4.0
 49
-5.0
 49
6.0
 49
-7.0
  0
LTYPE
  2
RAND5
 70
     0
  3
ランダム線5
 72
    65
 73
     4
 40
26.0
 49
5.0
 49
-6.0
 49
7.0
 49
-8.0
  0
LTYPE
  2
LONG1
 70
     0
  3
----------  --  ----------  --  
 72
    65
 73
     4
 40
40.0
 49
32.5
 49
-2.5
 49
2.5
 49
-2.5
  0
LTYPE
  2
LONG2
 70
     0
  3
--------  -  -  --------  -  -  
 72
    65
 73
     6
 40
40.0
 49
30.0
 49
-2.5
 49
1.25
 49
-2.5
 49
1.25
 49
-2.5
  0
LTYPE
  2
LONG3
 70
     0
  3
+++++++++++++++..+++++++++++++++
 72
    65
 73
     2
 40
40.0
 49
37.5
 49
-2.5
  0
LTYPE
  2
LONG4
 70
     0
  3
+++++++++++++++..+++++++++++++++
 72
    65
 73
     2
 40
80.0
 49
75.0
 49
-5.0
  0
LTYPE
  2
LONG5
 70
     0
  3
----------  --  ----------  --  
 72
    65
 73
     4
 40
60.0
 49
37.5
 49
-7.5
 49
7.5
 49
-7.5
  0
LTYPE
  2
DASHED
 70
     0
  3
-------   -------------   ------
 72
    65
 73
     2
 40
7.5
 49
6.0
 49
-1.5
  0
LTYPE
  2
DASHED_SPACED
 70
     0
  3
----        --------        ----
 72
    65
 73
     2
 40
12.0
 49
6.0
 49
-6.0
  0
LTYPE
  2
LONG_DASHED_DOTTED
 70
     0
  3
------------- --- --------------
 72
    65
 73
     4
 40
15.25
 49
12.0
 49
-1.5
 49
0.25
 49
-1.5
  0
LTYPE
  2
LONG_DASHED_DOUBLE-DOTTED
 70
     0
  3
----------- --- --- ------------
 72
    65
 73
     6
 40
17.0
 49
12.0
 49
-1.5
 49
0.25
 49
-1.5
 49
0.25
 49
-1.5
  0
LTYPE
  2
LONG_DASHED_TRIPLICATE-DOT
 70
     0
  3
--------- --- --- --- ----------
 72
    65
 73
     8
 40
18.75
 49
12.0
 49
-1.5
 49
0.25
 49
-1.5
 49
0.25
 49
-1.5
 49
0.25
 49
-1.5
  0
LTYPE
  2
DOTTED
 70
     0
  3
   -       -       -       -    
 72
    65
 73
     2
 40
1.75
 49
0.25
 49
-1.5
  0
LTYPE
  2
CHAIN
 70
     0
  3
-------------- -- --------------
 72
    65
 73
     4
 40
18.5
 49
12.0
 49
-1.5
 49
3.5
 49
-1.5
  0
LTYPE
  2
CHAIN_DOUBLE_DASH
 70
     0
  3
------------ -- -- -------------
 72
    65
 73
     6
 40
23.5
 49
12.0
 49
-1.5
 49
3.5
 49
-1.5
 49
3.5
 49
-1.5
  0
LTYPE
  2
DASHED_DOTTED
 70
     0
  3
-----------     -     ----------
 72
    65
 73
     4
 40
9.25
 49
6.0
 49
-1.5
 49
0.25
 49
-1.5
  0
LTYPE
  2
DOUBLE-DASHED_DOTTED
 70
     0
  3
------   -----------   -   -----
 72
    65
 73
     6
 40
16.75
 49
6.0
 49
-1.5
 49
6.0
 49
-1.5
 49
0.25
 49
-1.5
  0
LTYPE
  2
DASHED_DOUBLE-DOTTED
 70
     0
  3
---------    -    -    ---------
 72
    65
 73
     6
 40
11.0
 49
6.0
 49
-1.5
 49
0.25
 49
-1.5
 49
0.25
 49
-1.5
  0
LTYPE
  2
DOUBLE-DASHED_DOUBLE-DOTTE
 70
     0
  3
-----   ---------   -   -   ----
 72
    65
 73
     8
 40
18.5
 49
6.0
 49
-1.5
 49
6.0
 49
-1.5
 49
0.25
 49
-1.5
 49
0.25
 49
-1.5
  0
LTYPE
  2
DASHED_TRIPLICATE-DOTTED
 70
     0
  3
-------    -    -    -    ------
 72
    65
 73
     8
 40
12.75
 49
6.0
 49
-1.5
 49
0.25
 49
-1.5
 49
0.25
 49
-1.5
 49
0.25
 49
-1.5
  0
LTYPE
  2
DOUBLE-DASHED_TRIPLICATE-D
 70
     0
  3
-----  ---------  -  -  -  -----
 72
    65
 73
    10
 40
20.25
 49
6.0
 49
-1.5
 49
6.0
 49
-1.5
 49
0.25
 49
-1.5
 49
0.25
 49
-1.5
 49
0.25
 49
-1.5
  0
LTYPE
  2
UNDEFINED
 70
     0
  3
--------------------------------
 72
    65
 73
     0
 40
0.0
  0
ENDTAB
  0
TABLE
  2
LAYER
 70
    10
  0
LAYER
  2
0
 70
     0
 62
     7
  6
CONTINUOUS
  0
LAYER
  2
_0-0_
 70
     0
 62
     7
  6
CONTINUOUS
  0
LAYER
  2
_0-1_
 70
     0
 62
     7
  6
CONTINUOUS
  0
LAYER
  2
_0-2_
 70
     0
 62
     7
  6
CONTINUOUS
  0
LAYER
  2
_0-3_
 70
     0
 62
     7
  6
CONTINUOUS
  0
LAYER
  2
_0-4_
 70
     0
 62
     7
  6
CONTINUOUS
  0
LAYER
  2
_0-5_
 70
     0
 62
     7
  6
CONTINUOUS
  0
LAYER
  2
_1-5_
 70
     0
 62
     7
  6
CONTINUOUS
  0
LAYER
  2
_1-A_
 70
     0
 62
     7
  6
CONTINUOUS
  0
LAYER
  2
ADD_LINE
 70
     0
 62
     7
  6
CONTINUOUS
  0
ENDTAB
  0
TABLE
  2
STYLE
 70
     3
  0
STYLE
  2
STANDARD
 70
     0
 40
0.0
 41
1.0
 50
0.0
 71
     0
 42
0.2
  3
txt
  4
bigfont.shx
  0
STYLE
  2
ANNOTATIVE
 70
     0
 40
0.0
 41
1.0
 50
0.0
 71
     0
 42
0.2
  3
txt
  4

  0
STYLE
  2
TATEGAKI
 70
     4
 40
0.0
 41
1.0
 50
0.0
 71
     0
 42
1.0
  3
txt
  4
bigfont.shx
  0
ENDTAB
  0
TABLE
  2
VIEW
 70
     0
  0
ENDTAB
  0
TABLE
  2
UCS
 70
     0
  0
ENDTAB
  0
TABLE
  2
APPID
 70
     4
  0
APPID
  2
ACAD
 70
     0
  0
APPID
  2
ACADANNOTATIVE
 70
     0
  0
APPID
  2
ACAD_NAV_VCDISPLAY
 70
     0
  0
APPID
  2
ACAD_MLEADERVER
 70
     0
  0
ENDTAB
  0
TABLE
  2
DIMSTYLE
 70
     2
  0
DIMSTYLE
  2
STANDARD
 70
     0
  3

  4

  5

  6

  7

 40
1.0
 41
0.18
 42
0.0625
 43
0.38
 44
0.18
 45
0.0
 46
0.0
 47
0.0
 48
0.0
140
0.18
141
0.09
142
0.0
143
25.3999999999999986
144
1.0
145
0.0
146
1.0
147
0.09
 71
     0
 72
     0
 73
     1
 74
     1
 75
     0
 76
     0
 77
     0
 78
     0
170
     0
171
     2
172
     0
173
     0
174
     0
175
     0
176
     0
177
     0
178
     0
  0
DIMSTYLE
  2
ANNOTATIVE
 70
     0
  3

  4

  5

  6

  7

 40
1.0
 41
0.18
 42
0.0625
 43
0.38
 44
0.18
 45
0.0
 46
0.0
 47
0.0
 48
0.0
140
0.18
141
0.09
142
0.0
143
25.3999999999999986
144
1.0
145
0.0
146
1.0
147
0.09
 71
     0
 72
     0
 73
     1
 74
     1
 75
     0
 76
     0
 77
     0
 78
     0
170
     0
171
     2
172
     0
173
     0
174
     0
175
     0
176
     0
177
     0
178
     0
  0
ENDTAB
  0
ENDSEC
  0
SECTION
  2
BLOCKS
  0
BLOCK
  8
0
  2
$MODEL_SPACE
 70
     0
 10
0.0
 20
0.0
 30
0.0
  3
$MODEL_SPACE
  1

  0
ENDBLK
  5
71
  8
0
  0
BLOCK
 67
     1
  8
0
  2
$PAPER_SPACE
 70
     0
 10
0.0
 20
0.0
 30
0.0
  3
$PAPER_SPACE
  1

  0
ENDBLK
  5
6D
 67
     1
  8
0
  0
ENDSEC
  0
SECTION
  2
ENTITIES
  0
LINE
  5
A2
  8
_0-4_
  6
CONTINUOUS
 62
     3
 10
8000.0
 20
14700.0
 30
0.0
 11
8000.0
 21
24700.0
 31
0.0
  0
LINE
  5
A3
  8
_0-4_
  6
CONTINUOUS
 62
     3
 10
0.0
 20
14700.0
 30
0.0
 11
0.0
 21
24700.0
 31
0.0
  0
LINE
  5
A4
  8
_0-1_
  6
CONTINUOUS
 62
     4
 10
4000.0
 20
20701.231814247348666
 30
0.0
 11
7999.9999999999899956
 21
19101.231814247348666
 31
0.0
  0
LINE
  5
A5
  8
_0-1_
  6
CONTINUOUS
 62
     4
 10
4000.0
 20
20701.231814247348666
 30
0.0
 11
-0.0000000000085265
 21
19101.231814247348666
 31
0.0
  0
LINE
  5
A6
  8
_0-1_
  6
CONTINUOUS
 62
     4
 10
7999.9999999999899956
 20
19359.7197249898017617
 30
0.0
 11
4389.1337623249874014
 21
20804.066220059801708
 31
0.0
  0
LINE
  5
A7
  8
_0-2_
  6
DASHED1
 62
     7
 10
7999.9999999999899956
 20
19381.2603842183416418
 30
0.0
 11
4396.5615758520716554
 21
20822.6357538775191642
 31
0.0
  0
LINE
  5
A8
  8
_0-1_
  6
CONTINUOUS
 62
     4
 10
4389.1337623249846729
 20
20804.066220059801708
 30
0.0
 11
4299.9999999999918145
 21
20581.23181424734139
 31
0.0
  0
LINE
  5
A9
  8
_0-3_
  6
CONTINUOUS
 62
     2
 10
4396.5615758520716554
 20
20822.6357538775191642
 30
0.0
 11
4470.8397111228950962
 21
21008.3310920545700355
 31
0.0
  0
LINE
  5
AA
  8
_0-5_
  6
CONTINUOUS
 62
     7
 10
5472.3887174764122392
 20
21146.8774154142010957
 30
0.0
 11
5276.3636437998229667
 21
20837.5555787711491575
 31
0.0
  0
LINE
  5
AB
  8
_0-5_
  6
CONTINUOUS
 62
     7
 10
5781.2819550454469208
 20
20570.9662765872890304
 30
0.0
 11
6042.6487199475623129
 21
20983.3953921113607066
 31
0.0
  0
LINE
  5
AC
  8
_0-5_
  6
CONTINUOUS
 62
     7
 10
4520.4083031516202027
 20
21075.31573734480844
 30
0.0
 11
5781.2819550454469208
 21
20570.9662765872890304
 31
0.0
  0
LINE
  5
AD
  8
_0-5_
  6
CONTINUOUS
 62
     7
 10
5678.8588657164946198
 20
21064.2893561181699624
 30
0.0
 11
5607.4826524181271452
 21
20705.1079753238300327
 31
0.0
  0
LINE
  5
AE
  8
_0-5_
  6
CONTINUOUS
 62
     7
 10
4934.7995606180211325
 20
21361.9130781575586298
 30
0.0
 11
4738.77448694143186
 21
21052.5912415145212435
 31
0.0
  0
LINE
  5
AF
  8
_0-5_
  6
CONTINUOUS
 62
     7
 10
5141.2697088581071512
 20
21279.3250188615202205
 30
0.0
 11
5069.8934955597369481
 21
20920.1436380671912048
 31
0.0
  0
LINE
  5
B0
  8
_0-5_
  6
CONTINUOUS
 62
     7
 10
5813.9528006582131638
 20
20622.5199160277988994
 30
0.0
 11
4532.3043387013449319
 21
21135.1793008105487388
 31
0.0
  0
LINE
  5
B1
  8
_0-5_
  6
CONTINUOUS
 62
     7
 10
5970.7728595994813077
 20
20869.9773853422411776
 30
0.0
 11
5664.5836230568247629
 21
20992.4530799593085248
 31
0.0
  0
LINE
  5
B2
  8
_0-5_
  6
CONTINUOUS
 62
     7
 10
5931.5678448641647265
 20
20808.1130180136206036
 30
0.0
 11
5650.3083803971449015
 21
20920.6168038004398113
 31
0.0
  0
LINE
  5
B3
  8
_0-5_
  6
CONTINUOUS
 62
     7
 10
5892.3628301288490547
 20
20746.2486506850182195
 30
0.0
 11
5636.0331377374695876
 21
20848.7805276415710978
 31
0.0
  0
LINE
  5
B4
  8
_0-5_
  6
CONTINUOUS
 62
     7
 10
5853.1578153935270166
 20
20684.3842833564085595
 30
0.0
 11
5621.7578950777979117
 21
20776.9442514826914703
 31
0.0
  0
LINE
  5
B5
  8
_0-5_
  6
CONTINUOUS
 62
     7
 10
5433.183702741090201
 20
21085.0130480855987116
 30
0.0
 11
5126.9944661984372942
 21
21207.488742702651507
 31
0.0
  0
LINE
  5
B6
  8
_0-5_
  6
CONTINUOUS
 62
     7
 10
4895.5945458826990944
 20
21300.0487108289598837
 30
0.0
 11
4589.4053093400443686
 21
21422.524405446009041
 31
0.0
  0
LINE
  5
B7
  8
_0-5_
  6
CONTINUOUS
 62
     7
 10
5393.9786880057727103
 20
21023.1486807569890516
 30
0.0
 11
5112.7192235387637993
 21
21135.6524665437900694
 31
0.0
  0
LINE
  5
B8
  8
_0-5_
  6
CONTINUOUS
 62
     7
 10
4856.3895311473861511
 20
21238.1843435003393097
 30
0.0
 11
4575.1300666803717831
 21
21350.6881292871403275
 31
0.0
  0
LINE
  5
B9
  8
_0-5_
  6
CONTINUOUS
 62
     7
 10
5354.7736732704606766
 20
20961.2843134283793916
 30
0.0
 11
5098.4439808790802999
 21
21063.8161903849286318
 31
0.0
  0
LINE
  5
BA
  8
_0-5_
  6
CONTINUOUS
 62
     7
 10
4817.1845164120686604
 20
21176.3199761717296496
 30
0.0
 11
4560.8548240206955597
 21
21278.8518531282788899
 31
0.0
  0
LINE
  5
BB
  8
_0-5_
  6
CONTINUOUS
 62
     7
 10
5315.5686585351450049
 20
20899.4199460997588176
 30
0.0
 11
5084.168738219410443
 21
20991.9799142260599183
 31
0.0
  0
LINE
  5
BC
  8
_0-5_
  6
CONTINUOUS
 62
     7
 10
4777.9795016767529887
 20
21114.4556088431199896
 30
0.0
 11
4546.5795813610156983
 21
21207.0155769694101764
 31
0.0
  0
LINE
  5
BD
  8
_0-5_
  6
CONTINUOUS
 62
     7
 10
4520.4083031516202027
 20
21075.31573734480844
 30
0.0
 11
4603.680551999713316
 21
21494.3606816048813926
 31
0.0
  0
LINE
  5
BE
  8
_0-4_
  6
CONTINUOUS
 62
     3
 10
4349.1072357728544375
 20
21121.6460598802004824
 30
0.0
 11
5881.9866395430608463
 21
20508.4942983721084602
 31
0.0
  0
LINE
  5
BF
  8
_0-4_
  6
CONTINUOUS
 62
     3
 10
5874.5588260159738638
 20
20489.9247645543982799
 30
0.0
 11
5781.7111569274366047
 21
20527.0638321898113645
 31
0.0
  0
LINE
  5
C0
  8
_0-4_
  6
CONTINUOUS
 62
     3
 10
5881.9866395430608463
 20
20508.4942983721084602
 30
0.0
 11
5874.5588260159738638
 21
20489.9247645543982799
 31
0.0
  0
LINE
  5
C1
  8
_0-5_
  6
CONTINUOUS
 62
     7
 10
6042.6487199475623129
 20
20983.3953921113607066
 30
0.0
 11
3999.9999999999968168
 21
21800.4548800903794472
 31
0.0
  0
LINE
  5
C2
  8
_0-3_
  6
DASHED3
 62
     4
 10
7999.9999999999899956
 20
19488.9636803610483184
 30
0.0
 11
4433.7006434874811021
 21
20915.483422966030048
 31
0.0
  0
LINE
  5
C3
  8
_0-1_
  6
CONTINUOUS
 62
     4
 10
3610.8662376750071417
 20
20804.066220059801708
 30
0.0
 11
3700.0
 21
20581.23181424734139
 31
0.0
  0
LINE
  5
C4
  8
_0-3_
  6
CONTINUOUS
 62
     2
 10
3603.4384241479187949
 20
20822.6357538775191642
 30
0.0
 11
3529.1602888770939899
 21
21008.3310920545882254
 31
0.0
  0
LINE
  5
C5
  8
_0-5_
  6
CONTINUOUS
 62
     7
 10
2527.6112825235800301
 20
21146.8774154142010957
 30
0.0
 11
2723.6363562001688479
 21
20837.5555787711491575
 31
0.0
  0
LINE
  5
C6
  8
_0-5_
  6
CONTINUOUS
 62
     7
 10
2218.7180449545448937
 20
20570.9662765872890304
 30
0.0
 11
1957.3512800524299564
 21
20983.3953921113607066
 31
0.0
  0
LINE
  5
C7
  8
_0-5_
  6
CONTINUOUS
 62
     7
 10
3479.5916968483679739
 20
21075.31573734480844
 30
0.0
 11
2218.7180449545448937
 21
20570.9662765872890304
 31
0.0
  0
LINE
  5
C8
  8
_0-5_
  6
CONTINUOUS
 62
     7
 10
2321.1411342834940115
 20
21064.2893561181699624
 30
0.0
 11
2392.5173475818642146
 21
20705.1079753238300327
 31
0.0
  0
LINE
  5
C9
  8
_0-5_
  6
CONTINUOUS
 62
     7
 10
3065.2004393819711368
 20
21361.9130781575586298
 30
0.0
 11
3261.2255130585599545
 21
21052.5912415145212435
 31
0.0
  0
LINE
  5
CA
  8
_0-5_
  6
CONTINUOUS
 62
     7
 10
2858.7302911418851181
 20
21279.3250188615202205
 30
0.0
 11
2930.106504440252138
 21
20920.1436380671912048
 31
0.0
  0
LINE
  5
CB
  8
_0-5_
  6
CONTINUOUS
 62
     7
 10
2186.047199341778196
 20
20622.5199160277988994
 30
0.0
 11
3467.6956612986427899
 21
21135.1793008105487388
 31
0.0
  0
LINE
  5
CC
  8
_0-5_
  6
CONTINUOUS
 62
     7
 10
2029.2271404005109616
 20
20869.9773853422411776
 30
0.0
 11
2335.4163769431661422
 21
20992.4530799593085248
 31
0.0
  0
LINE
  5
CD
  8
_0-5_
  6
CONTINUOUS
 62
     7
 10
2068.4321551358270881
 20
20808.1130180136206036
 30
0.0
 11
2349.6916196028419108
 21
20920.6168038004398113
 31
0.0
  0
LINE
  5
CE
  8
_0-5_
  6
CONTINUOUS
 62
     7
 10
2107.6371698711400313
 20
20746.2486506850182195
 30
0.0
 11
2363.9668622625208627
 21
20848.7805276415892877
 31
0.0
  0
LINE
  5
CF
  8
_0-5_
  6
CONTINUOUS
 62
     7
 10
2146.8421846064638885
 20
20684.3842833564303874
 30
0.0
 11
2378.2421049221911744
 21
20776.9442514827096602
 31
0.0
  0
LINE
  5
D0
  8
_0-5_
  6
CONTINUOUS
 62
     7
 10
2566.8162972589011588
 20
21085.0130480855987116
 30
0.0
 11
2873.0055338015549751
 21
21207.488742702651507
 31
0.0
  0
LINE
  5
D1
  8
_0-5_
  6
CONTINUOUS
 62
     7
 10
3104.4054541172931749
 20
21300.0487108289598837
 30
0.0
 11
3410.5946906599460817
 21
21422.524405446009041
 31
0.0
  0
LINE
  5
D2
  8
_0-5_
  6
CONTINUOUS
 62
     7
 10
2606.0213119942181947
 20
21023.1486807569890516
 30
0.0
 11
2887.2807764612280153
 21
21135.6524665437900694
 31
0.0
  0
LINE
  5
D3
  8
_0-5_
  6
CONTINUOUS
 62
     7
 10
3143.6104688526061182
 20
21238.1843435003211198
 30
0.0
 11
3424.8699333196159387
 21
21350.6881292871512414
 31
0.0
  0
LINE
  5
D4
  8
_0-5_
  6
CONTINUOUS
 62
     7
 10
2645.226326729531138
 20
20961.2843134283793916
 30
0.0
 11
2901.5560191209119694
 21
21063.8161903849286318
 31
0.0
  0
LINE
  5
D5
  8
_0-5_
  6
CONTINUOUS
 62
     7
 10
3182.8154835879217899
 20
21176.3199761717296496
 30
0.0
 11
3439.1451759792948906
 21
21278.8518531282607
 31
0.0
  0
LINE
  5
D6
  8
_0-5_
  6
CONTINUOUS
 62
     7
 10
2684.4313414648468097
 20
20899.4199460997588176
 30
0.0
 11
2915.8312617805818263
 21
20991.9799142260599183
 31
0.0
  0
LINE
  5
D7
  8
_0-5_
  6
CONTINUOUS
 62
     7
 10
3222.0204983232351879
 20
21114.4556088431199896
 30
0.0
 11
3453.420418638972933
 21
21207.0155769694101764
 31
0.0
  0
LINE
  5
D8
  8
_0-5_
  6
CONTINUOUS
 62
     7
 10
3479.5916968483679739
 20
21075.31573734480844
 30
0.0
 11
3396.3194480002762248
 21
21494.3606816048813926
 31
0.0
  0
LINE
  5
D9
  8
_0-4_
  6
CONTINUOUS
 62
     3
 10
3650.8927642271360128
 20
21121.6460598802004824
 30
0.0
 11
2118.0133604569309682
 21
20508.4942983721011842
 31
0.0
  0
LINE
  5
DA
  8
_0-4_
  6
CONTINUOUS
 62
     3
 10
2125.4411739840179507
 20
20489.9247645543982799
 30
0.0
 11
2218.2888430725552098
 21
20527.0638321898113645
 31
0.0
  0
LINE
  5
DB
  8
_0-4_
  6
CONTINUOUS
 62
     3
 10
2118.0133604569309682
 20
20508.4942983721011842
 30
0.0
 11
2125.4411739840179507
 21
20489.9247645543982799
 31
0.0
  0
LINE
  5
DC
  8
_0-3_
  6
DASHED3
 62
     4
 10
-0.0000000000028421
 20
19488.9636803610483184
 30
0.0
 11
3566.2993565125111672
 21
20915.483422966030048
 31
0.0
  0
LINE
  5
DD
  8
_0-3_
  6
CONTINUOUS
 62
     2
 10
3529.1602888770939899
 20
21008.3310920545882254
 30
0.0
 11
0.0
 21
19596.6669765037404431
 31
0.0
  0
LINE
  5
DE
  8
_0-3_
  6
CONTINUOUS
 62
     2
 10
4470.8397111228969152
 20
21008.3310920545700355
 30
0.0
 11
8000.0
 21
19596.6669765037295292
 31
0.0
  0
LINE
  5
DF
  8
_0-1_
  6
CONTINUOUS
 62
     4
 10
-0.0000000000085265
 20
19359.7197249898017617
 30
0.0
 11
3610.8662376749998657
 21
20804.066220059801708
 31
0.0
  0
LINE
  5
E0
  8
_0-2_
  6
DASHED1
 62
     7
 10
-0.0000000000085265
 20
19381.2603842183416418
 30
0.0
 11
3603.4384241479187949
 21
20822.6357538775009743
 31
0.0
  0
LINE
  5
E1
  8
_0-5_
  6
CONTINUOUS
 62
     7
 10
1990.022125665188014
 20
20931.8417526708508376
 30
0.0
 11
3999.9999999999968168
 21
21735.8329024047707208
 31
0.0
  0
LINE
  5
E2
  8
_0-5_
  6
CONTINUOUS
 62
     7
 10
6009.9778743348024364
 20
20931.8417526708508376
 30
0.0
 11
3999.9999999999968168
 21
21735.8329024047707208
 31
0.0
  0
LINE
  5
E3
  8
_0-5_
  6
CONTINUOUS
 62
     7
 10
1957.3512800524299564
 20
20983.3953921113607066
 30
0.0
 11
3999.9999999999968168
 21
21800.4548800903794472
 31
0.0
  0
LINE
  5
E4
  8
_0-1_
  6
CONTINUOUS
 62
     4
 10
2950.0
 20
17431.9021489631413715
 30
0.0
 11
5050.0
 21
17431.9021489631413715
 31
0.0
  0
LINE
  5
E5
  8
_0-1_
  6
CONTINUOUS
 62
     4
 10
2950.0
 20
17431.9021489631413715
 30
0.0
 11
2950.0
 21
19531.9021489631413715
 31
0.0
  0
LINE
  5
E6
  8
_0-1_
  6
CONTINUOUS
 62
     4
 10
2950.0
 20
19531.9021489631413715
 30
0.0
 11
5050.0
 21
19531.9021489631413715
 31
0.0
  0
LINE
  5
E7
  8
_0-1_
  6
CONTINUOUS
 62
     4
 10
5050.0
 20
17431.9021489631413715
 30
0.0
 11
5050.0
 21
19531.9021489631413715
 31
0.0
  0
LINE
  5
E8
  8
_0-1_
  6
CONTINUOUS
 62
     4
 10
4000.0
 20
19731.9021489631413715
 30
0.0
 11
3500.0
 21
19531.9021489631413715
 31
0.0
  0
LINE
  5
E9
  8
_0-1_
  6
CONTINUOUS
 62
     4
 10
2950.0
 20
19311.9021489631413715
 30
0.0
 11
0.0
 21
18131.9021489631413715
 31
0.0
  0
LINE
  5
EA
  8
_0-1_
  6
CONTINUOUS
 62
     4
 10
4000.0
 20
19731.9021489631413715
 30
0.0
 11
4500.0
 21
19531.9021489631413715
 31
0.0
  0
LINE
  5
EB
  8
_0-1_
  6
CONTINUOUS
 62
     4
 10
5050.0
 20
19311.9021489631413715
 30
0.0
 11
8000.0
 21
18131.9021489631413715
 31
0.0
  0
LINE
  5
EC
  8
_0-1_
  6
CONTINUOUS
 62
     4
 10
5050.0
 20
19531.9021489631413715
 30
0.0
 11
2950.0
 21
17431.9021489631413715
 31
0.0
  0
LINE
  5
ED
  8
_0-1_
  6
CONTINUOUS
 62
     4
 10
5050.0
 20
17431.9021489631413715
 30
0.0
 11
2950.0
 21
19531.9021489631413715
 31
0.0
  0
LINE
  5
EE
  8
_0-4_
  6
CONTINUOUS
 62
     3
 10
8000.0
 20
14700.0
 30
0.0
 11
16000.0
 21
14700.0
 31
0.0
  0
LINE
  5
EF
  8
_0-1_
  6
CONTINUOUS
 62
     4
 10
11240.0
 20
17381.5395222520310199
 30
0.0
 11
12760.0
 21
17381.5395222520310199
 31
0.0
  0
LINE
  5
F0
  8
_0-1_
  6
CONTINUOUS
 62
     4
 10
11240.0
 20
14700.0
 30
0.0
 11
11240.0
 21
17381.5395222520310199
 31
0.0
  0
LINE
  5
F1
  8
_0-1_
  6
CONTINUOUS
 62
     4
 10
12760.0
 20
14700.0
 30
0.0
 11
12760.0
 21
17381.5395222520310199
 31
0.0
  0
LINE
  5
F2
  8
_0-1_
  6
CONTINUOUS
 62
     4
 10
12000.0
 20
17381.5395222520310199
 30
0.0
 11
12000.0
 21
14700.0
 31
0.0
  0
LINE
  5
F3
  8
_0-1_
  6
CONTINUOUS
 62
     4
 10
12000.0
 20
17381.5395222520310199
 30
0.0
 11
11240.0
 21
14700.0
 31
0.0
  0
LINE
  5
F4
  8
_0-1_
  6
CONTINUOUS
 62
     4
 10
12760.0
 20
17381.5395222520310199
 30
0.0
 11
12000.0
 21
14700.0
 31
0.0
  0
LINE
  5
F5
  8
_0-1_
  6
CONTINUOUS
 62
     4
 10
11620.0
 20
19161.5395222520310199
 30
0.0
 11
11620.0
 21
17381.5395222520310199
 31
0.0
  0
LINE
  5
F6
  8
_0-1_
  6
CONTINUOUS
 62
     4
 10
11619.9999999999909051
 20
19161.5395222520310199
 30
0.0
 11
12379.9999999999909051
 21
19161.5395222520310199
 31
0.0
  0
LINE
  5
F7
  8
_0-1_
  6
CONTINUOUS
 62
     4
 10
12379.9999999999909051
 20
19161.5395222520310199
 30
0.0
 11
12379.9999999999909051
 21
17381.5395222520310199
 31
0.0
  0
LINE
  5
F8
  8
_0-1_
  6
CONTINUOUS
 62
     4
 10
12379.9999999999909051
 20
19161.5395222520310199
 30
0.0
 11
11620.0
 21
17381.5395222520310199
 31
0.0
  0
LINE
  5
F9
  8
_0-1_
  6
CONTINUOUS
 62
     4
 10
11620.0
 20
19161.5395222520310199
 30
0.0
 11
11620.0
 21
20549.231814247348666
 31
0.0
  0
LINE
  5
FA
  8
_0-1_
  6
CONTINUOUS
 62
     4
 10
12379.9999999999909051
 20
19161.5395222520310199
 30
0.0
 11
12379.9999999999909051
 21
20549.231814247348666
 31
0.0
  0
LINE
  5
FB
  8
_0-1_
  6
CONTINUOUS
 62
     4
 10
15999.9999999999909051
 20
19359.7197249898017617
 30
0.0
 11
12389.1337623249801254
 21
20804.0662200598198979
 31
0.0
  0
LINE
  5
FC
  8
_0-1_
  6
CONTINUOUS
 62
     4
 10
15999.9999999999909051
 20
19101.231814247348666
 30
0.0
 11
12299.9999999999909051
 21
20581.231814247348666
 31
0.0
  0
LINE
  5
FD
  8
_0-2_
  6
DASHED1
 62
     7
 10
15999.9999999999909051
 20
19381.2603842183416418
 30
0.0
 11
12396.561575852059832
 21
20822.6357538775191642
 31
0.0
  0
LINE
  5
FE
  8
_0-1_
  6
CONTINUOUS
 62
     4
 10
12389.1337623249692115
 20
20804.0662200598198979
 30
0.0
 11
12299.9999999999799911
 21
20581.2318142473595799
 31
0.0
  0
LINE
  5
FF
  8
_0-3_
  6
CONTINUOUS
 62
     2
 10
12396.561575852059832
 20
20822.6357538775300782
 30
0.0
 11
12470.8397111228805443
 21
21008.3310920545700355
 31
0.0
  0
LINE
  5
100
  8
_0-5_
  6
CONTINUOUS
 62
     7
 10
13796.1375820996108814
 20
20565.0240257656405447
 30
0.0
 11
14057.5043470017208165
 21
20977.4531412897085829
 31
0.0
  0
LINE
  5
101
  8
_0-5_
  6
CONTINUOUS
 62
     7
 10
12535.2639302057796158
 20
21069.3734865231708682
 30
0.0
 11
13796.1375820996108814
 21
20565.0240257656405447
 31
0.0
  0
LINE
  5
102
  8
_0-5_
  6
CONTINUOUS
 62
     7
 10
13693.714492770650395
 20
21058.3471052965214767
 30
0.0
 11
13622.3382794722892868
 21
20699.1657245021706331
 31
0.0
  0
LINE
  5
103
  8
_0-5_
  6
CONTINUOUS
 62
     7
 10
12949.6551876721805456
 20
21355.970827335910144
 30
0.0
 11
12753.6301139955903636
 21
21046.6489906928691198
 31
0.0
  0
LINE
  5
104
  8
_0-5_
  6
CONTINUOUS
 62
     7
 10
13487.2443445305707428
 20
21140.935164592548972
 30
0.0
 11
13291.2192708539805608
 21
20831.6133279495006718
 31
0.0
  0
LINE
  5
105
  8
_0-5_
  6
CONTINUOUS
 62
     7
 10
13156.1253359122601978
 20
21273.3827680398717348
 30
0.0
 11
13084.7491226139009086
 21
20914.2013872455318051
 31
0.0
  0
LINE
  5
106
  8
_0-5_
  6
CONTINUOUS
 62
     7
 10
13828.8084277123707579
 20
20616.5776652061504137
 30
0.0
 11
12547.1599657554997975
 21
21129.2370499888893391
 31
0.0
  0
LINE
  5
107
  8
_0-5_
  6
CONTINUOUS
 62
     7
 10
13985.6284866536407208
 20
20864.0351345205817779
 30
0.0
 11
13679.4392501109796285
 21
20986.5108291376491252
 31
0.0
  0
LINE
  5
108
  8
_0-5_
  6
CONTINUOUS
 62
     7
 10
13946.4234719183205016
 20
20802.1707671919684799
 30
0.0
 11
13665.1640074513106811
 21
20914.6745529787804116
 31
0.0
  0
LINE
  5
109
  8
_0-5_
  6
CONTINUOUS
 62
     7
 10
13907.2184571830093773
 20
20740.3063998633697338
 30
0.0
 11
13650.8887647916308197
 21
20842.8382768199116981
 31
0.0
  0
LINE
  5
10A
  8
_0-5_
  6
CONTINUOUS
 62
     7
 10
13868.0134424476891581
 20
20678.4420325347600738
 30
0.0
 11
13636.6135221319600532
 21
20771.0020006610502605
 31
0.0
  0
LINE
  5
10B
  8
_0-5_
  6
CONTINUOUS
 62
     7
 10
13448.0393297952505236
 20
21079.070797263939312
 30
0.0
 11
13141.8500932525894314
 21
21201.5464918809993833
 31
0.0
  0
LINE
  5
10C
  8
_0-5_
  6
CONTINUOUS
 62
     7
 10
12910.4501729368494125
 20
21294.106460007300484
 30
0.0
 11
12604.2609363941992342
 21
21416.5821546243605553
 31
0.0
  0
LINE
  5
10D
  8
_0-5_
  6
CONTINUOUS
 62
     7
 10
13408.8343150599303044
 20
21017.2064299353405659
 30
0.0
 11
13127.5748505929204839
 21
21129.7102157221415837
 31
0.0
  0
LINE
  5
10E
  8
_0-5_
  6
CONTINUOUS
 62
     7
 10
12871.2451582015401073
 20
21232.242092678690824
 30
0.0
 11
12589.9856937345302867
 21
21344.7458784654882038
 31
0.0
  0
LINE
  5
10F
  8
_0-5_
  6
CONTINUOUS
 62
     7
 10
13369.6293003246100852
 20
20955.3420626067199919
 30
0.0
 11
13113.2996079332297086
 21
21057.8739395632801461
 31
0.0
  0
LINE
  5
110
  8
_0-5_
  6
CONTINUOUS
 62
     7
 10
12832.040143466230802
 20
21170.37772535007025
 30
0.0
 11
12575.7104510748504254
 21
21272.9096023066194903
 31
0.0
  0
LINE
  5
111
  8
_0-5_
  6
CONTINUOUS
 62
     7
 10
13330.42428558930078
 20
20893.4776952781103319
 30
0.0
 11
13099.0243652735607611
 21
20986.0376634044114326
 31
0.0
  0
LINE
  5
112
  8
_0-5_
  6
CONTINUOUS
 62
     7
 10
12792.8351287309105828
 20
21108.5133580214715039
 30
0.0
 11
12561.4352084151796589
 21
21201.0733261477616907
 31
0.0
  0
LINE
  5
113
  8
_0-5_
  6
CONTINUOUS
 62
     7
 10
12535.2639302057796158
 20
21069.3734865231708682
 30
0.0
 11
12618.5361790538790956
 21
21488.4184307832401828
 31
0.0
  0
LINE
  5
114
  8
_0-4_
  6
CONTINUOUS
 62
     3
 10
12363.9628628270202171
 20
21115.7038090585410828
 30
0.0
 11
13896.8422665972193499
 21
20502.5520475504599744
 31
0.0
  0
LINE
  5
115
  8
_0-4_
  6
CONTINUOUS
 62
     3
 10
13889.4144530701305484
 20
20483.9825137327497941
 30
0.0
 11
13796.5667839815996558
 21
20521.1215813681592408
 31
0.0
  0
LINE
  5
116
  8
_0-4_
  6
CONTINUOUS
 62
     3
 10
13896.8422665972193499
 20
20502.5520475504599744
 30
0.0
 11
13889.4144530701305484
 21
20483.9825137327497941
 31
0.0
  0
LINE
  5
117
  8
_0-5_
  6
CONTINUOUS
 62
     7
 10
14057.5043470017208165
 20
20977.4531412897085829
 30
0.0
 11
11999.9999999999909051
 21
21800.4548800904012751
 31
0.0
  0
LINE
  5
118
  8
_0-5_
  6
CONTINUOUS
 62
     7
 10
14024.833501388959121
 20
20925.8995018491987139
 30
0.0
 11
11999.9999999999909051
 21
21735.8329024047889106
 31
0.0
  0
LINE
  5
119
  8
_0-1_
  6
CONTINUOUS
 62
     4
 10
11619.9999999999909051
 20
19161.5395222520310199
 30
0.0
 11
11619.9999999999909051
 21
20549.231814247348666
 31
0.0
  0
LINE
  5
11A
  8
_0-3_
  6
CONTINUOUS
 62
     2
 10
12470.8397111228805443
 20
21008.3310920545700355
 30
0.0
 11
16000.0
 21
19596.6669765037295292
 31
0.0
  0
LINE
  5
11B
  8
_0-3_
  6
DASHED3
 62
     4
 10
12433.7006434874692786
 20
20915.4834229660482379
 30
0.0
 11
16000.0
 21
19488.9636803610410425
 31
0.0
  0
LINE
  5
11C
  8
_0-1_
  6
CONTINUOUS
 62
     4
 10
12379.9999999999909051
 20
17533.5395222520310199
 30
0.0
 11
16000.0
 21
16085.539522252020106
 31
0.0
  0
LINE
  5
11D
  8
_0-1_
  6
CONTINUOUS
 62
     4
 10
11620.0
 20
17533.5395222520310199
 30
0.0
 11
8000.0
 21
16085.5395222520292009
 31
0.0
  0
LINE
  5
11E
  8
_0-1_
  6
CONTINUOUS
 62
     4
 10
11610.8662376750107796
 20
20804.0662200598198979
 30
0.0
 11
11700.0000000000090949
 21
20581.2318142473595799
 31
0.0
  0
LINE
  5
11F
  8
_0-1_
  6
CONTINUOUS
 62
     4
 10
7999.9999999999899956
 20
19359.7197249898017617
 30
0.0
 11
11610.8662376750107796
 21
20804.066220059801708
 31
0.0
  0
LINE
  5
120
  8
_0-2_
  6
DASHED1
 62
     7
 10
7999.9999999999899956
 20
19381.2603842183416418
 30
0.0
 11
11603.4384241479292541
 21
20822.6357538775082503
 31
0.0
  0
LINE
  5
121
  8
_0-1_
  6
CONTINUOUS
 62
     4
 10
7999.9999999999899956
 20
19101.231814247348666
 30
0.0
 11
11700.0
 21
20581.231814247348666
 31
0.0
  0
LINE
  5
122
  8
_0-1_
  6
CONTINUOUS
 62
     4
 10
7999.9999999999972715
 20
19359.7197249898017617
 30
0.0
 11
11610.8662376750107796
 21
20804.0662200598198979
 31
0.0
  0
LINE
  5
123
  8
_0-1_
  6
CONTINUOUS
 62
     4
 10
8000.0
 20
19101.231814247348666
 30
0.0
 11
11700.0
 21
20581.231814247348666
 31
0.0
  0
LINE
  5
124
  8
_0-2_
  6
DASHED1
 62
     7
 10
8000.0
 20
19381.2603842183416418
 30
0.0
 11
11603.4384241479201592
 21
20822.6357538775191642
 31
0.0
  0
LINE
  5
125
  8
_0-1_
  6
CONTINUOUS
 62
     4
 10
11610.8662376750198746
 20
20804.0662200598198979
 30
0.0
 11
11700.0000000000090949
 21
20581.23181424734139
 31
0.0
  0
LINE
  5
126
  8
_0-3_
  6
CONTINUOUS
 62
     2
 10
11603.4384241479201592
 20
20822.6357538775300782
 30
0.0
 11
11529.1602888770994468
 21
21008.3310920545700355
 31
0.0
  0
LINE
  5
127
  8
_0-5_
  6
CONTINUOUS
 62
     7
 10
10203.8624179003800236
 20
20565.0240257656405447
 30
0.0
 11
9942.4956529982755455
 21
20977.4531412897085829
 31
0.0
  0
LINE
  5
128
  8
_0-5_
  6
CONTINUOUS
 62
     7
 10
11464.7360697942094703
 20
21069.3734865231708682
 30
0.0
 11
10203.8624179003800236
 21
20565.0240257656405447
 31
0.0
  0
LINE
  5
129
  8
_0-5_
  6
CONTINUOUS
 62
     7
 10
10306.2855072293295962
 20
21058.3471052965214767
 30
0.0
 11
10377.6617205276997993
 21
20699.1657245021706331
 31
0.0
  0
LINE
  5
12A
  8
_0-5_
  6
CONTINUOUS
 62
     7
 10
11050.3448123278103594
 20
21355.970827335910144
 30
0.0
 11
11246.3698860044005414
 21
21046.6489906928691198
 31
0.0
  0
LINE
  5
12B
  8
_0-5_
  6
CONTINUOUS
 62
     7
 10
10512.7556554694201623
 20
21140.935164592548972
 30
0.0
 11
10708.7807291460103443
 21
20831.6133279495006718
 31
0.0
  0
LINE
  5
12C
  8
_0-5_
  6
CONTINUOUS
 62
     7
 10
10843.8746640877307073
 20
21273.3827680398717348
 30
0.0
 11
10915.2508773860899964
 21
20914.2013872455318051
 31
0.0
  0
LINE
  5
12D
  8
_0-5_
  6
CONTINUOUS
 62
     7
 10
10171.1915722876092332
 20
20616.5776652061285859
 30
0.0
 11
11452.8400342444801936
 21
21129.2370499888893391
 31
0.0
  0
LINE
  5
12E
  8
_0-5_
  6
CONTINUOUS
 62
     7
 10
10014.3715133463501843
 20
20864.035134520570864
 30
0.0
 11
10320.5607498890003626
 21
20986.5108291376709531
 31
0.0
  0
LINE
  5
12F
  8
_0-5_
  6
CONTINUOUS
 62
     7
 10
10053.5765280816594895
 20
20802.1707671919684799
 30
0.0
 11
10334.835992548680224
 21
20914.6745529787986015
 31
0.0
  0
LINE
  5
130
  8
_0-5_
  6
CONTINUOUS
 62
     7
 10
10092.7815428169797087
 20
20740.3063998633697338
 30
0.0
 11
10349.1112352083691803
 21
20842.8382768199116981
 31
0.0
  0
LINE
  5
131
  8
_0-5_
  6
CONTINUOUS
 62
     7
 10
10131.9865575522999279
 20
20678.4420325347600738
 30
0.0
 11
10363.3864778680308518
 21
20771.0020006610502605
 31
0.0
  0
LINE
  5
132
  8
_0-5_
  6
CONTINUOUS
 62
     7
 10
10551.9606702047403815
 20
21079.070797263939312
 30
0.0
 11
10858.1499067473996547
 21
21201.5464918809993833
 31
0.0
  0
LINE
  5
133
  8
_0-5_
  6
CONTINUOUS
 62
     7
 10
11089.5498270631396736
 20
21294.106460007300484
 30
0.0
 11
11395.7390636057898519
 21
21416.5821546243714693
 31
0.0
  0
LINE
  5
134
  8
_0-5_
  6
CONTINUOUS
 62
     7
 10
10591.1656849400606006
 20
21017.206429935318738
 30
0.0
 11
10872.4251494070704211
 21
21129.7102157221415837
 31
0.0
  0
LINE
  5
135
  8
_0-5_
  6
CONTINUOUS
 62
     7
 10
11128.7548417984398839
 20
21232.242092678690824
 30
0.0
 11
11410.0143062654606183
 21
21344.7458784654882038
 31
0.0
  0
LINE
  5
136
  8
_0-5_
  6
CONTINUOUS
 62
     7
 10
10630.3706996753699059
 20
20955.3420626067381818
 30
0.0
 11
10886.7003920667502825
 21
21057.8739395632801461
 31
0.0
  0
LINE
  5
137
  8
_0-5_
  6
CONTINUOUS
 62
     7
 10
11167.959856533760103
 20
21170.37772535007025
 30
0.0
 11
11424.2895489251295658
 21
21272.9096023066194903
 31
0.0
  0
LINE
  5
138
  8
_0-5_
  6
CONTINUOUS
 62
     7
 10
10669.5757144106901251
 20
20893.4776952781103319
 30
0.0
 11
10900.97563472641923
 21
20986.0376634044005186
 31
0.0
  0
LINE
  5
139
  8
_0-5_
  6
CONTINUOUS
 62
     7
 10
11207.1648712690803222
 20
21108.5133580214715039
 30
0.0
 11
11438.5647915848094271
 21
21201.0733261477616907
 31
0.0
  0
LINE
  5
13A
  8
_0-5_
  6
CONTINUOUS
 62
     7
 10
11464.7360697942094703
 20
21069.3734865231708682
 30
0.0
 11
11381.4638209461099905
 21
21488.4184307832401828
 31
0.0
  0
LINE
  5
13B
  8
_0-4_
  6
CONTINUOUS
 62
     3
 10
11636.037137172970688
 20
21115.7038090585410828
 30
0.0
 11
10103.1577334027697361
 21
20502.5520475504599744
 31
0.0
  0
LINE
  5
13C
  8
_0-4_
  6
CONTINUOUS
 62
     3
 10
10110.5855469298603566
 20
20483.9825137327497941
 30
0.0
 11
10203.4332160184003442
 21
20521.1215813681592408
 31
0.0
  0
LINE
  5
13D
  8
_0-4_
  6
CONTINUOUS
 62
     3
 10
10103.1577334027697361
 20
20502.5520475504599744
 30
0.0
 11
10110.5855469298603566
 21
20483.9825137327497941
 31
0.0
  0
LINE
  5
13E
  8
_0-5_
  6
CONTINUOUS
 62
     7
 10
9942.4956529982755455
 20
20977.4531412897085829
 30
0.0
 11
12000.0
 21
21800.4548800904012751
 31
0.0
  0
LINE
  5
13F
  8
_0-5_
  6
CONTINUOUS
 62
     7
 10
9975.1664986110336031
 20
20925.8995018491987139
 30
0.0
 11
12000.0
 21
21735.8329024047889106
 31
0.0
  0
LINE
  5
140
  8
_0-3_
  6
CONTINUOUS
 62
     2
 10
11529.1602888770994468
 20
21008.3310920545700355
 30
0.0
 11
8000.0
 21
19596.6669765037513571
 31
0.0
  0
LINE
  5
141
  8
_0-3_
  6
DASHED3
 62
     4
 10
11566.2993565125198074
 20
20915.4834229660482379
 30
0.0
 11
8000.0
 21
19488.9636803610483184
 31
0.0
  0
LINE
  5
142
  8
_0-4_
  6
CONTINUOUS
 62
     3
 10
32000.0
 20
14700.0
 30
0.0
 11
32000.0
 21
24700.0
 31
0.0
  0
LINE
  5
143
  8
_0-4_
  6
CONTINUOUS
 62
     3
 10
24000.0
 20
14700.0
 30
0.0
 11
32000.0
 21
14700.0
 31
0.0
  0
LINE
  5
144
  8
_0-1_
  6
CONTINUOUS
 62
     4
 10
28714.9164689962417469
 20
18782.6191637363408518
 30
0.0
 11
24000.0
 21
16896.6525761378397874
 31
0.0
  0
LINE
  5
145
  8
_0-1_
  6
CONTINUOUS
 62
     4
 10
28714.9164689962417469
 20
17813.2894984521190054
 30
0.0
 11
24000.0
 21
15927.322910853630674
 31
0.0
  0
LINE
  5
146
  8
_0-1_
  6
CONTINUOUS
 62
     4
 10
28325.7827066712598025
 20
18885.4535695488011697
 30
0.0
 11
24000.0
 21
17155.1404868802892452
 31
0.0
  0
LINE
  5
147
  8
_0-1_
  6
CONTINUOUS
 62
     4
 10
28414.9164689962417469
 20
18662.6191637363408518
 30
0.0
 11
28325.7827066712598025
 21
18885.4535695488011697
 31
0.0
  0
LINE
  5
148
  8
_0-3_
  6
CONTINUOUS
 62
     2
 10
28325.7827066712598025
 20
18885.4535695488011697
 30
0.0
 11
28244.0767578733502887
 21
19089.7184415435694973
 31
0.0
  0
LINE
  5
149
  8
_0-3_
  6
CONTINUOUS
 62
     2
 10
24000.0
 20
17392.0877383942497545
 30
0.0
 11
28244.0767578733502887
 21
19089.7184415435694973
 31
0.0
  0
LINE
  5
14A
  8
_0-3_
  6
DASHED3
 62
     4
 10
24000.0
 20
17284.3844422515394399
 30
0.0
 11
28281.2158255087597354
 21
18996.8707724550404237
 31
0.0
  0
LINE
  5
14B
  8
_0-2_
  6
DASHED1
 62
     7
 10
24000.0
 20
17176.6811461088291253
 30
0.0
 11
28318.354893144180096
 21
18904.0231033665004361
 31
0.0
  0
LINE
  5
14C
  8
_0-1_
  6
CONTINUOUS
 62
     4
 10
26572.818714279881533
 20
18421.2152241061885434
 30
0.0
 11
26461.401511373649555
 21
18699.7582313717684883
 31
0.0
  0
LINE
  5
14D
  8
_0-1_
  6
CONTINUOUS
 62
     4
 10
26461.401511373649555
 20
18699.7582313717684883
 30
0.0
 11
28132.6595549671110348
 21
19368.2614488091603562
 31
0.0
  0
LINE
  5
14E
  8
_0-1_
  6
CONTINUOUS
 62
     4
 10
28244.0767578733502887
 20
19089.7184415435694973
 30
0.0
 11
28132.6595549671110348
 21
19368.2614488091603562
 31
0.0
  0
LINE
  5
14F
  8
_0-1_
  6
CONTINUOUS
 62
     4
 10
28132.6595549671110348
 20
19368.2614488091603562
 30
0.0
 11
26572.818714279881533
 21
18421.2152241061885434
 31
0.0
  0
LINE
  5
150
  8
_0-4_
  6
CONTINUOUS
 62
     3
 10
26168.0028770539211109
 20
18302.3702076728914108
 30
0.0
 11
26175.4306905810008175
 21
18283.8006738551812305
 31
0.0
  0
LINE
  5
151
  8
_0-4_
  6
CONTINUOUS
 62
     3
 10
26168.0028770539211109
 20
18302.3702076728914108
 30
0.0
 11
26539.3935534080083016
 21
18450.9264782145401114
 31
0.0
  0
LINE
  5
152
  8
_0-4_
  6
CONTINUOUS
 62
     3
 10
26539.3935534080083016
 20
18450.9264782145401114
 30
0.0
 11
26435.4041640288705821
 21
18710.8999516623989621
 31
0.0
  0
LINE
  5
153
  8
_0-4_
  6
CONTINUOUS
 62
     3
 10
26175.4306905810008175
 20
18283.8006738551812305
 30
0.0
 11
26268.2783596695298911
 21
18320.9397414906015911
 31
0.0
  0
LINE
  5
154
  8
_0-4_
  6
CONTINUOUS
 62
     3
 10
26435.4041640288705821
 20
18710.8999516623989621
 30
0.0
 11
28218.0794105285494879
 21
19423.9700502622908971
 31
0.0
  0
LINE
  5
155
  8
_0-4_
  6
CONTINUOUS
 62
     3
 10
28694.9164689962417469
 20
20498.521347207009967
 30
0.0
 11
28694.9164689962417469
 21
22898.521347207009967
 31
0.0
  0
LINE
  5
156
  8
_0-3_
  6
CONTINUOUS
 62
     2
 10
28354.9164689962417469
 20
20685.6312356350790651
 30
0.0
 11
28034.9164689962417469
 21
20685.6312356350790651
 31
0.0
  0
LINE
  5
157
  8
_0-4_
  6
CONTINUOUS
 62
     3
 10
40000.0
 20
14700.0
 30
0.0
 11
40000.0
 21
24700.0
 31
0.0
  0
LINE
  5
158
  8
_0-5_
  6
CONTINUOUS
 62
     7
 10
26613.4477420624207298
 20
18804.3074872919714835
 30
0.0
 11
26352.0809771603016998
 21
19216.7366028160286078
 31
0.0
  0
LINE
  5
159
  8
_0-5_
  6
CONTINUOUS
 62
     7
 10
27874.3213939562483574
 20
19308.656948049490893
 30
0.0
 11
26613.4477420624207298
 21
18804.3074872919714835
 31
0.0
  0
LINE
  5
15A
  8
_0-5_
  6
CONTINUOUS
 62
     7
 10
26715.8708313913703023
 20
19297.6305668228415016
 30
0.0
 11
26787.2470446897496004
 21
18938.4491860285015719
 31
0.0
  0
LINE
  5
15B
  8
_0-5_
  6
CONTINUOUS
 62
     7
 10
27459.9301364898492466
 20
19595.2542888622301689
 30
0.0
 11
27655.9552101664412476
 21
19285.9324522191782307
 31
0.0
  0
LINE
  5
15C
  8
_0-5_
  6
CONTINUOUS
 62
     7
 10
26922.3409796314517735
 20
19380.2186261188799108
 30
0.0
 11
27118.3660533080510504
 21
19070.8967894758206967
 31
0.0
  0
LINE
  5
15D
  8
_0-5_
  6
CONTINUOUS
 62
     7
 10
27253.4599882497604995
 20
19512.6662295661917597
 30
0.0
 11
27324.8362015481397975
 21
19153.4848487718591059
 31
0.0
  0
LINE
  5
15E
  8
_0-5_
  6
CONTINUOUS
 62
     7
 10
26580.7768964496499393
 20
18855.8611267324595246
 30
0.0
 11
27862.4253584065190807
 21
19368.5205115152202779
 31
0.0
  0
LINE
  5
15F
  8
_0-5_
  6
CONTINUOUS
 62
     7
 10
26423.9568375083908904
 20
19103.3185960469018028
 30
0.0
 11
26730.1460740510483447
 21
19225.7942906639982539
 31
0.0
  0
LINE
  5
160
  8
_0-5_
  6
CONTINUOUS
 62
     7
 10
26463.1618522437092906
 20
19041.4542287182885048
 30
0.0
 11
26744.4213167107300251
 21
19153.9580145051186264
 31
0.0
  0
LINE
  5
161
  8
_0-5_
  6
CONTINUOUS
 62
     7
 10
26502.3668669790204149
 20
18979.5898613896897587
 30
0.0
 11
26758.6965593704007915
 21
19082.1217383462389989
 31
0.0
  0
LINE
  5
162
  8
_0-5_
  6
CONTINUOUS
 62
     7
 10
26541.5718817143388151
 20
18917.7254940610910126
 30
0.0
 11
26772.971802030071558
 21
19010.2854621873702854
 31
0.0
  0
LINE
  5
163
  8
_0-5_
  6
CONTINUOUS
 62
     7
 10
26961.5459943667810876
 20
19318.3542587902702508
 30
0.0
 11
27267.7352309094385419
 21
19440.8299534073303221
 31
0.0
  0
LINE
  5
164
  8
_0-5_
  6
CONTINUOUS
 62
     7
 10
27499.1351512251712848
 20
19533.3899215336205089
 30
0.0
 11
27805.3243877678214631
 21
19655.8656161506987701
 31
0.0
  0
LINE
  5
165
  8
_0-5_
  6
CONTINUOUS
 62
     7
 10
27000.7510091020885739
 20
19256.4898914616496768
 30
0.0
 11
27282.0104735690983944
 21
19368.9936772484616085
 31
0.0
  0
LINE
  5
166
  8
_0-5_
  6
CONTINUOUS
 62
     7
 10
27538.340165960478771
 20
19471.5255542050108488
 30
0.0
 11
27819.5996304274995055
 21
19584.0293399918082287
 31
0.0
  0
LINE
  5
167
  8
_0-5_
  6
CONTINUOUS
 62
     7
 10
27039.956023837410612
 20
19194.6255241330582066
 30
0.0
 11
27296.2857162287909887
 21
19297.157401089600171
 31
0.0
  0
LINE
  5
168
  8
_0-5_
  6
CONTINUOUS
 62
     7
 10
27577.5451806958008092
 20
19409.6611868764011888
 30
0.0
 11
27833.8748730871702719
 21
19512.1930638329504291
 31
0.0
  0
LINE
  5
169
  8
_0-5_
  6
CONTINUOUS
 62
     7
 10
27079.1610385727217363
 20
19132.7611568044412707
 30
0.0
 11
27310.5609588884617551
 21
19225.3211249307205435
 31
0.0
  0
LINE
  5
16A
  8
_0-5_
  6
CONTINUOUS
 62
     7
 10
27616.7501954311192094
 20
19347.7968195477915287
 30
0.0
 11
27848.1501157468483143
 21
19440.3567876740817155
 31
0.0
  0
LINE
  5
16B
  8
_0-5_
  6
CONTINUOUS
 62
     7
 10
27874.3213939562483574
 20
19308.656948049490893
 30
0.0
 11
27791.0491451081616106
 21
19727.7018923095602077
 31
0.0
  0
LINE
  5
16C
  8
_0-5_
  6
CONTINUOUS
 62
     7
 10
26384.7518227730688523
 20
19165.1829633755187388
 30
0.0
 11
28417.0131376891295076
 21
19978.0874893419386353
 31
0.0
  0
LINE
  5
16D
  8
_0-5_
  6
CONTINUOUS
 62
     7
 10
26352.0809771603016998
 20
19216.7366028160286078
 30
0.0
 11
28394.7296971078794741
 21
20033.7960907950582623
 31
0.0
  0
LINE
  5
16E
  8
_0-5_
  6
CONTINUOUS
 62
     7
 10
28394.7296971078794741
 20
20033.7960907950582623
 30
0.0
 11
28417.0131376891295076
 21
19978.0874893419386353
 31
0.0
  0
LINE
  5
16F
  8
_0-1_
  6
CONTINUOUS
 62
     4
 10
26046.9009465914787143
 20
19094.6645905885015964
 30
0.0
 11
25935.4837436852503743
 21
19373.2075978540706274
 31
0.0
  0
LINE
  5
170
  8
_0-1_
  6
CONTINUOUS
 62
     4
 10
26046.9009465914787143
 20
19094.6645905885015964
 30
0.0
 11
27718.1589901849511079
 21
19763.1678080259007402
 31
0.0
  0
LINE
  5
171
  8
_0-1_
  6
CONTINUOUS
 62
     4
 10
25935.4837436852503743
 20
19373.2075978540706274
 30
0.0
 11
27606.7417872787300439
 21
20041.7108152914697712
 31
0.0
  0
LINE
  5
172
  8
_0-1_
  6
CONTINUOUS
 62
     4
 10
27718.1589901849511079
 20
19763.1678080259007402
 30
0.0
 11
27606.7417872787300439
 21
20041.7108152914697712
 31
0.0
  0
LINE
  5
173
  8
_0-1_
  6
CONTINUOUS
 62
     4
 10
27606.7417872787300439
 20
20041.7108152914697712
 30
0.0
 11
26046.9009465914787143
 21
19094.6645905885015964
 31
0.0
  0
LINE
  5
174
  8
_0-4_
  6
CONTINUOUS
 62
     3
 10
26058.042666882109188
 20
19012.9586417905884446
 30
0.0
 11
26076.6122006998193683
 21
19020.3864553176717891
 31
0.0
  0
LINE
  5
175
  8
_0-4_
  6
CONTINUOUS
 62
     3
 10
26076.6122006998193683
 20
19020.3864553176717891
 30
0.0
 11
26039.4731330644099216
 21
19113.2341244062117767
 31
0.0
  0
LINE
  5
176
  8
_0-4_
  6
CONTINUOUS
 62
     3
 10
25909.4863963404495735
 20
19384.3493181447011011
 30
0.0
 11
28694.9164689962417469
 21
20498.521347207009967
 31
0.0
  0
LINE
  5
177
  8
_0-1_
  6
CONTINUOUS
 62
     4
 10
27814.9164689962417469
 20
17453.2894984521190054
 30
0.0
 11
28714.9164689962417469
 21
17453.2894984521190054
 31
0.0
  0
LINE
  5
178
  8
_0-1_
  6
CONTINUOUS
 62
     4
 10
27814.9164689962417469
 20
15653.2894984521208244
 30
0.0
 11
27814.9164689962417469
 21
17453.2894984521190054
 31
0.0
  0
LINE
  5
179
  8
_0-1_
  6
CONTINUOUS
 62
     4
 10
27814.9164689962417469
 20
15653.2894984521208244
 30
0.0
 11
28714.9164689962417469
 21
15653.2894984521208244
 31
0.0
  0
LINE
  5
17A
  8
_0-1_
  6
CONTINUOUS
 62
     4
 10
28714.9164689962417469
 20
17453.2894984521190054
 30
0.0
 11
27814.9164689962417469
 21
15653.2894984521208244
 31
0.0
  0
LINE
  5
17B
  8
_0-4_
  6
CONTINUOUS
 62
     3
 10
32000.0
 20
14700.0
 30
0.0
 11
40000.0
 21
14700.0
 31
0.0
  0
LINE
  5
17C
  8
_0-1_
  6
CONTINUOUS
 62
     4
 10
34949.999999999992724
 20
17625.7680820199893788
 30
0.0
 11
37050.0
 21
17625.7680820199893788
 31
0.0
  0
LINE
  5
17D
  8
_0-1_
  6
CONTINUOUS
 62
     4
 10
34949.999999999992724
 20
17625.7680820199893788
 30
0.0
 11
34949.999999999992724
 21
19725.7680820199893788
 31
0.0
  0
LINE
  5
17E
  8
_0-1_
  6
CONTINUOUS
 62
     4
 10
34949.999999999992724
 20
19725.7680820199893788
 30
0.0
 11
37050.0
 21
19725.7680820199893788
 31
0.0
  0
LINE
  5
17F
  8
_0-1_
  6
CONTINUOUS
 62
     4
 10
37050.0
 20
17625.7680820199893788
 30
0.0
 11
37050.0
 21
19725.7680820199893788
 31
0.0
  0
LINE
  5
180
  8
_0-1_
  6
CONTINUOUS
 62
     4
 10
37050.0
 20
19725.7680820199893788
 30
0.0
 11
34949.999999999992724
 21
17625.7680820199893788
 31
0.0
  0
LINE
  5
181
  8
_0-1_
  6
CONTINUOUS
 62
     4
 10
37050.0
 20
17625.7680820199893788
 30
0.0
 11
34949.999999999992724
 21
19725.7680820199893788
 31
0.0
  0
LINE
  5
182
  8
_0-2_
  6
DASHED1
 62
     7
 10
36396.561575852058013
 20
21016.5016869343708095
 30
0.0
 11
40000.0
 21
19575.1263172751896491
 31
0.0
  0
LINE
  5
183
  8
_0-1_
  6
CONTINUOUS
 62
     4
 10
36389.1337623249783064
 20
20997.9321531166715431
 30
0.0
 11
40000.0
 21
19553.5856580466497689
 31
0.0
  0
LINE
  5
184
  8
_0-1_
  6
CONTINUOUS
 62
     4
 10
35999.999999999992724
 20
20895.0977473042003112
 30
0.0
 11
40000.0
 21
19295.0977473042003112
 31
0.0
  0
LINE
  5
185
  8
_0-3_
  6
CONTINUOUS
 62
     2
 10
40000.0
 20
19596.6669765037295292
 30
0.0
 11
36320.9956364785321057
 21
21068.2687219123217801
 31
0.0
  0
LINE
  5
186
  8
_0-1_
  6
CONTINUOUS
 62
     4
 10
35699.9999999999781721
 20
20775.0977473042003112
 30
0.0
 11
35610.8662376750071417
 21
20997.9321531166715431
 31
0.0
  0
LINE
  5
187
  8
_0-2_
  6
DASHED1
 62
     7
 10
35603.4384241479274351
 20
21016.5016869343708095
 30
0.0
 11
31999.9999999999890861
 21
19575.1263172751896491
 31
0.0
  0
LINE
  5
188
  8
_0-1_
  6
CONTINUOUS
 62
     4
 10
35610.8662376750071417
 20
20997.9321531166715431
 30
0.0
 11
31999.9999999999890861
 21
19553.5856580466497689
 31
0.0
  0
LINE
  5
189
  8
_0-1_
  6
CONTINUOUS
 62
     4
 10
35999.999999999992724
 20
20895.0977473042003112
 30
0.0
 11
31999.9999999999890861
 21
19295.0977473042003112
 31
0.0
  0
LINE
  5
18A
  8
_0-3_
  6
CONTINUOUS
 62
     2
 10
31999.9999999999890861
 20
19596.6669765037295292
 30
0.0
 11
35679.0043635214533424
 21
21068.2687219123217801
 31
0.0
  0
LINE
  5
18B
  8
_0-3_
  6
CONTINUOUS
 62
     4
 10
40000.0
 20
20350.5900495025598502
 30
0.0
 11
36302.4261026608219254
 21
21829.6196084382208937
 31
0.0
  0
LINE
  5
18C
  8
_0-1_
  6
CONTINUOUS
 62
     4
 10
36299.999999999992724
 20
20775.0977473042003112
 30
0.0
 11
36389.1337623249783064
 21
20997.9321531166715431
 31
0.0
  0
LINE
  5
18D
  8
_0-5_
  6
CONTINUOUS
 62
     7
 10
37472.3887174764095107
 20
22180.1796131964401866
 30
0.0
 11
37276.3636437998211477
 21
21870.8577765533882484
 31
0.0
  0
LINE
  5
18E
  8
_0-5_
  6
CONTINUOUS
 62
     7
 10
37781.2819550454369164
 20
21604.2684743695317593
 30
0.0
 11
38042.6487199475523084
 21
22016.6975898935997975
 31
0.0
  0
LINE
  5
18F
  8
_0-5_
  6
CONTINUOUS
 62
     7
 10
36520.4083031516202027
 20
22108.6179351270693587
 30
0.0
 11
37781.2819550454369164
 21
21604.2684743695317593
 31
0.0
  0
LINE
  5
190
  8
_0-5_
  6
CONTINUOUS
 62
     7
 10
37678.8588657165018958
 20
22097.5915539004090533
 30
0.0
 11
37607.4826524181335117
 21
21738.4101731060691236
 31
0.0
  0
LINE
  5
191
  8
_0-5_
  6
CONTINUOUS
 62
     7
 10
36934.7995606180193136
 20
22395.2152759398013586
 30
0.0
 11
36738.7744869414309505
 21
22085.8934392967603344
 31
0.0
  0
LINE
  5
192
  8
_0-5_
  6
CONTINUOUS
 62
     7
 10
37141.2697088580971467
 20
22312.6272166437593114
 30
0.0
 11
37069.8934955597433145
 21
21953.4458358494302956
 31
0.0
  0
LINE
  5
193
  8
_0-5_
  6
CONTINUOUS
 62
     7
 10
37813.9528006582113449
 20
21655.8221138100416283
 30
0.0
 11
36532.3043387013603933
 21
22168.4814985927805537
 31
0.0
  0
LINE
  5
194
  8
_0-5_
  6
CONTINUOUS
 62
     7
 10
37970.7728595994922216
 20
21903.2795831244802685
 30
0.0
 11
37664.5836230568165774
 21
22025.7552777415512537
 31
0.0
  0
LINE
  5
195
  8
_0-5_
  6
CONTINUOUS
 62
     7
 10
37931.5678448641629075
 20
21841.4152157958706084
 30
0.0
 11
37650.308380397153087
 21
21953.9190015826789022
 31
0.0
  0
LINE
  5
196
  8
_0-5_
  6
CONTINUOUS
 62
     7
 10
37892.3628301288481453
 20
21779.5508484672609484
 30
0.0
 11
37636.0331377374677686
 21
21882.0827254238101887
 31
0.0
  0
LINE
  5
197
  8
_0-5_
  6
CONTINUOUS
 62
     7
 10
37853.157815393533383
 20
21717.6864811386512883
 30
0.0
 11
37621.7578950777970022
 21
21810.2464492649414751
 31
0.0
  0
LINE
  5
198
  8
_0-5_
  6
CONTINUOUS
 62
     7
 10
37433.1837027410874725
 20
22118.3152458678414405
 30
0.0
 11
37126.9944661984263803
 21
22240.7909404849015118
 31
0.0
  0
LINE
  5
199
  8
_0-5_
  6
CONTINUOUS
 62
     7
 10
36895.5945458826827235
 20
22333.3509086111989745
 30
0.0
 11
36589.4053093400434591
 21
22455.8266032282517699
 31
0.0
  0
LINE
  5
19A
  8
_0-5_
  6
CONTINUOUS
 62
     7
 10
37393.9786880057727103
 20
22056.4508785392317805
 30
0.0
 11
37112.7192235387628898
 21
22168.9546643260400742
 31
0.0
  0
LINE
  5
19B
  8
_0-5_
  6
CONTINUOUS
 62
     7
 10
36856.3895311473825132
 20
22271.4865412825784006
 30
0.0
 11
36575.1300666803726926
 21
22383.9903270693794184
 31
0.0
  0
LINE
  5
19C
  8
_0-5_
  6
CONTINUOUS
 62
     7
 10
37354.7736732704506721
 20
21994.5865112106112065
 30
0.0
 11
37098.4439808790921234
 21
22097.1183881671713607
 31
0.0
  0
LINE
  5
19D
  8
_0-5_
  6
CONTINUOUS
 62
     7
 10
36817.1845164120677509
 20
22209.6221739539687405
 30
0.0
 11
36560.8548240206873743
 21
22312.1540509105216188
 31
0.0
  0
LINE
  5
19E
  8
_0-5_
  6
CONTINUOUS
 62
     7
 10
37315.5686585351431859
 20
21932.7221438820015464
 30
0.0
 11
37084.168738219406805
 21
22025.2821120083099231
 31
0.0
  0
LINE
  5
19F
  8
_0-5_
  6
CONTINUOUS
 62
     7
 10
36777.9795016767602647
 20
22147.7578066253699944
 30
0.0
 11
36546.5795813610166078
 21
22240.3177747516492673
 31
0.0
  0
LINE
  5
1A0
  8
_0-5_
  6
CONTINUOUS
 62
     7
 10
36520.4083031516202027
 20
22108.6179351270693587
 30
0.0
 11
36603.6805519997215015
 21
22527.6628793871313974
 31
0.0
  0
LINE
  5
1A1
  8
_0-5_
  6
CONTINUOUS
 62
     7
 10
38042.6487199475523084
 20
22016.6975898935997975
 30
0.0
 11
35999.999999999992724
 21
22833.7570778726185381
 31
0.0
  0
LINE
  5
1A2
  8
_0-5_
  6
CONTINUOUS
 62
     7
 10
38009.9778743347997079
 20
21965.1439504530899285
 30
0.0
 11
35999.999999999992724
 21
22769.1351001870098116
 31
0.0
  0
LINE
  5
1A3
  8
_0-3_
  6
CONTINUOUS
 62
     2
 10
36320.9956364785321057
 20
21068.2687219123217801
 30
0.0
 11
36469.5519070201698923
 21
21439.6593982664198847
 31
0.0
  0
LINE
  5
1A4
  8
_0-1_
  6
CONTINUOUS
 62
     4
 10
38085.1013491605190211
 20
21439.6593982664307987
 30
0.0
 11
36413.8433055670466274
 21
22108.1626157038190286
 31
0.0
  0
LINE
  5
1A5
  8
_0-1_
  6
CONTINUOUS
 62
     4
 10
36302.4261026608219254
 20
21829.6196084382499976
 30
0.0
 11
38085.1013491605190211
 21
21439.6593982664307987
 31
0.0
  0
LINE
  5
1A6
  8
_0-1_
  6
CONTINUOUS
 62
     4
 10
37713.7106728064172785
 20
20511.1827073811691662
 30
0.0
 11
38085.1013491605190211
 21
21439.6593982664307987
 31
0.0
  0
LINE
  5
1A7
  8
_0-1_
  6
CONTINUOUS
 62
     4
 10
36413.8433055670466274
 20
22108.1626157038190286
 30
0.0
 11
36302.4261026608219254
 21
21829.6196084382208937
 31
0.0
  0
LINE
  5
1A8
  8
_0-5_
  6
CONTINUOUS
 62
     7
 10
34527.6112825235832133
 20
22180.1796131964401866
 30
0.0
 11
34723.6363562001715763
 21
21870.8577765533882484
 31
0.0
  0
LINE
  5
1A9
  8
_0-5_
  6
CONTINUOUS
 62
     7
 10
34218.7180449545412557
 20
21604.2684743695317593
 30
0.0
 11
33957.3512800524185877
 21
22016.6975898935997975
 31
0.0
  0
LINE
  5
1AA
  8
_0-5_
  6
CONTINUOUS
 62
     7
 10
35479.5916968483579694
 20
22108.6179351270693587
 30
0.0
 11
34218.7180449545412557
 21
21604.2684743695317593
 31
0.0
  0
LINE
  5
1AB
  8
_0-5_
  6
CONTINUOUS
 62
     7
 10
34321.1411342834835523
 20
22097.5915539004090533
 30
0.0
 11
34392.5173475818519364
 21
21738.4101731060691236
 31
0.0
  0
LINE
  5
1AC
  8
_0-5_
  6
CONTINUOUS
 62
     7
 10
35065.2004393819734105
 20
22395.2152759398013586
 30
0.0
 11
35261.2255130585617735
 21
22085.8934392967603344
 31
0.0
  0
LINE
  5
1AD
  8
_0-5_
  6
CONTINUOUS
 62
     7
 10
34858.7302911418810254
 20
22312.6272166437593114
 30
0.0
 11
34930.1065044402494095
 21
21953.4458358494302956
 31
0.0
  0
LINE
  5
1AE
  8
_0-5_
  6
CONTINUOUS
 62
     7
 10
34186.0471993417668273
 20
21655.8221138100416283
 30
0.0
 11
35467.6956612986396067
 21
22168.4814985927805537
 31
0.0
  0
LINE
  5
1AF
  8
_0-5_
  6
CONTINUOUS
 62
     7
 10
34029.2271404005077784
 20
21903.2795831244802685
 30
0.0
 11
34335.4163769431615947
 21
22025.7552777415512537
 31
0.0
  0
LINE
  5
1B0
  8
_0-5_
  6
CONTINUOUS
 62
     7
 10
34068.4321551358298166
 20
21841.4152157958706084
 30
0.0
 11
34349.6916196028396371
 21
21953.9190015826789022
 31
0.0
  0
LINE
  5
1B1
  8
_0-5_
  6
CONTINUOUS
 62
     7
 10
34107.6371698711373028
 20
21779.5508484672609484
 30
0.0
 11
34363.9668622625176795
 21
21882.0827254238101887
 31
0.0
  0
LINE
  5
1B2
  8
_0-5_
  6
CONTINUOUS
 62
     7
 10
34146.8421846064520651
 20
21717.6864811386512883
 30
0.0
 11
34378.2421049221884459
 21
21810.2464492649414751
 31
0.0
  0
LINE
  5
1B3
  8
_0-5_
  6
CONTINUOUS
 62
     7
 10
34566.8162972589125275
 20
22118.3152458678414405
 30
0.0
 11
34873.0055338015517918
 21
22240.7909404849015118
 31
0.0
  0
LINE
  5
1B4
  8
_0-5_
  6
CONTINUOUS
 62
     7
 10
35104.4054541172808968
 20
22333.3509086111989745
 30
0.0
 11
35410.594690659949265
 21
22455.8266032282517699
 31
0.0
  0
LINE
  5
1B5
  8
_0-5_
  6
CONTINUOUS
 62
     7
 10
34606.0213119942127378
 20
22056.4508785392317805
 30
0.0
 11
34887.2807764612225583
 21
22168.9546643260400742
 31
0.0
  0
LINE
  5
1B6
  8
_0-5_
  6
CONTINUOUS
 62
     7
 10
35143.6104688526102109
 20
22271.4865412825784006
 30
0.0
 11
35424.8699333196127554
 21
22383.9903270693794184
 31
0.0
  0
LINE
  5
1B7
  8
_0-5_
  6
CONTINUOUS
 62
     7
 10
34645.2263267295275
 20
21994.5865112106112065
 30
0.0
 11
34901.5560191209078766
 21
22097.1183881671713607
 31
0.0
  0
LINE
  5
1B8
  8
_0-5_
  6
CONTINUOUS
 62
     7
 10
35182.8154835879322491
 20
22209.6221739539687405
 30
0.0
 11
35439.1451759792835219
 21
22312.1540509105216188
 31
0.0
  0
LINE
  5
1B9
  8
_0-5_
  6
CONTINUOUS
 62
     7
 10
34684.4313414648422622
 20
21932.7221438820015464
 30
0.0
 11
34915.8312617805786431
 21
22025.2821120083099231
 31
0.0
  0
LINE
  5
1BA
  8
_0-5_
  6
CONTINUOUS
 62
     7
 10
35222.0204983232324594
 20
22147.7578066253699944
 30
0.0
 11
35453.4204186389833922
 21
22240.3177747516492673
 31
0.0
  0
LINE
  5
1BB
  8
_0-5_
  6
CONTINUOUS
 62
     7
 10
35479.5916968483579694
 20
22108.6179351270693587
 30
0.0
 11
35396.3194480002712226
 21
22527.6628793871313974
 31
0.0
  0
LINE
  5
1BC
  8
_0-5_
  6
CONTINUOUS
 62
     7
 10
33957.3512800524185877
 20
22016.6975898935997975
 30
0.0
 11
35999.999999999992724
 21
22833.7570778726185381
 31
0.0
  0
LINE
  5
1BD
  8
_0-5_
  6
CONTINUOUS
 62
     7
 10
33990.0221256651930162
 20
21965.1439504530899285
 30
0.0
 11
35999.999999999992724
 21
22769.1351001870098116
 31
0.0
  0
LINE
  5
1BE
  8
_0-3_
  6
CONTINUOUS
 62
     4
 10
35419.0308900735835778
 20
21718.2024055320107436
 30
0.0
 11
35530.4480929798228317
 21
21439.6593982664198847
 31
0.0
  0
LINE
  5
1BF
  8
_0-1_
  6
CONTINUOUS
 62
     4
 10
33914.898650839466427
 20
21439.6593982664307987
 30
0.0
 11
35586.1566944329315447
 21
22108.1626157038190286
 31
0.0
  0
LINE
  5
1C0
  8
_0-1_
  6
CONTINUOUS
 62
     4
 10
35697.5738973391635227
 20
21829.6196084382499976
 30
0.0
 11
33914.898650839466427
 21
21439.6593982664307987
 31
0.0
  0
LINE
  5
1C1
  8
_0-1_
  6
CONTINUOUS
 62
     4
 10
34286.2893271935681696
 20
20511.1827073811582522
 30
0.0
 11
33914.898650839466427
 21
21439.6593982664307987
 31
0.0
  0
LINE
  5
1C2
  8
_0-3_
  6
CONTINUOUS
 62
     2
 10
35679.0043635214533424
 20
21068.2687219123217801
 30
0.0
 11
35530.4480929798228317
 21
21439.6593982664198847
 31
0.0
  0
LINE
  5
1C3
  8
_0-1_
  6
CONTINUOUS
 62
     4
 10
35999.999999999992724
 20
19925.7680820199893788
 30
0.0
 11
35499.999999999992724
 21
19725.7680820199893788
 31
0.0
  0
LINE
  5
1C4
  8
_0-1_
  6
CONTINUOUS
 62
     4
 10
34949.999999999992724
 20
19505.7680820199893788
 30
0.0
 11
31999.9999999999890861
 21
18325.7680820199893788
 31
0.0
  0
LINE
  5
1C5
  8
_0-1_
  6
CONTINUOUS
 62
     4
 10
35999.999999999992724
 20
19925.7680820199893788
 30
0.0
 11
36499.999999999992724
 21
19725.7680820199893788
 31
0.0
  0
LINE
  5
1C6
  8
_0-1_
  6
CONTINUOUS
 62
     4
 10
37050.0
 20
19505.7680820199893788
 30
0.0
 11
40000.0
 21
18325.7680820199893788
 31
0.0
  0
LINE
  5
1C7
  8
_0-3_
  6
CONTINUOUS
 62
     4
 10
36580.9691099264018703
 20
21718.2024055320107436
 30
0.0
 11
36469.5519070201698923
 21
21439.6593982664198847
 31
0.0
  0
LINE
  5
1C8
  8
_0-4_
  6
CONTINUOUS
 62
     3
 10
34230.5807257404594566
 20
20596.6025629426294472
 30
0.0
 11
34195.8121744523232337
 21
20763.5617283045212389
 31
0.0
  0
LINE
  5
1C9
  8
_0-4_
  6
CONTINUOUS
 62
     3
 10
37769.4192742595332675
 20
20596.6025629426294472
 30
0.0
 11
37804.1878255476694903
 21
20763.5617283045212389
 31
0.0
  0
LINE
  5
1CA
  8
_0-1_
  6
CONTINUOUS
 62
     4
 10
44389.1337623249710305
 20
20997.9321531166606292
 30
0.0
 11
44299.999999999992724
 21
20775.0977473042003112
 31
0.0
  0
LINE
  5
1CB
  8
_0-3_
  6
CONTINUOUS
 62
     2
 10
48000.0
 20
19596.6669765037295292
 30
0.0
 11
44299.999999999992724
 21
21076.6669765037404431
 31
0.0
  0
LINE
  5
1CC
  8
_0-5_
  6
CONTINUOUS
 62
     7
 10
45472.3887174764167867
 20
21081.6059925410008873
 30
0.0
 11
45276.3636437998211477
 21
20772.2841558979489491
 31
0.0
  0
LINE
  5
1CD
  8
_0-5_
  6
CONTINUOUS
 62
     7
 10
45781.2819550454296404
 20
20505.694853714088822
 30
0.0
 11
46042.6487199475523084
 21
20918.1239692381604982
 31
0.0
  0
LINE
  5
1CE
  8
_0-5_
  6
CONTINUOUS
 62
     7
 10
44520.4083031516202027
 20
21010.0443144716191455
 30
0.0
 11
45781.2819550454296404
 21
20505.694853714088822
 31
0.0
  0
LINE
  5
1CF
  8
_0-5_
  6
CONTINUOUS
 62
     7
 10
45678.8588657164873439
 20
20999.017933244969754
 30
0.0
 11
45607.4826524181189598
 21
20639.8365524506298243
 31
0.0
  0
LINE
  5
1D0
  8
_0-5_
  6
CONTINUOUS
 62
     7
 10
44934.7995606180193136
 20
21296.6416552843584213
 30
0.0
 11
44738.7744869414309505
 21
20987.3198186413210351
 31
0.0
  0
LINE
  5
1D1
  8
_0-5_
  6
CONTINUOUS
 62
     7
 10
45141.2697088580971467
 20
21214.0535959883200121
 30
0.0
 11
45069.8934955597287626
 21
20854.8722151939909963
 31
0.0
  0
LINE
  5
1D2
  8
_0-5_
  6
CONTINUOUS
 62
     7
 10
45813.9528006581967929
 20
20557.248493154598691
 30
0.0
 11
44532.3043387013385654
 21
21069.9078779373412544
 31
0.0
  0
LINE
  5
1D3
  8
_0-5_
  6
CONTINUOUS
 62
     7
 10
45970.7728595994776697
 20
20804.7059624690409692
 30
0.0
 11
45664.5836230568165774
 21
20927.1816570861010405
 31
0.0
  0
LINE
  5
1D4
  8
_0-5_
  6
CONTINUOUS
 62
     7
 10
45931.5678448641629075
 20
20742.8415951404203952
 30
0.0
 11
45650.308380397153087
 21
20855.345380927228689
 31
0.0
  0
LINE
  5
1D5
  8
_0-5_
  6
CONTINUOUS
 62
     7
 10
45892.3628301288408693
 20
20680.9772278118216491
 30
0.0
 11
45636.0331377374604926
 21
20783.5091047683708894
 31
0.0
  0
LINE
  5
1D6
  8
_0-5_
  6
CONTINUOUS
 62
     7
 10
45853.1578153935188311
 20
20619.1128604832083511
 30
0.0
 11
45621.7578950777970022
 21
20711.6728286094912619
 31
0.0
  0
LINE
  5
1D7
  8
_0-5_
  6
CONTINUOUS
 62
     7
 10
45433.1837027410874725
 20
21019.7416252123985032
 30
0.0
 11
45126.9944661984191043
 21
21142.2173198294512986
 31
0.0
  0
LINE
  5
1D8
  8
_0-5_
  6
CONTINUOUS
 62
     7
 10
44895.5945458826827235
 20
21234.7772879557487613
 30
0.0
 11
44589.4053093400289072
 21
21357.2529825728088326
 31
0.0
  0
LINE
  5
1D9
  8
_0-5_
  6
CONTINUOUS
 62
     7
 10
45393.9786880057727103
 20
20957.8772578837888432
 30
0.0
 11
45112.7192235387628898
 21
21070.381043670589861
 31
0.0
  0
LINE
  5
1DA
  8
_0-5_
  6
CONTINUOUS
 62
     7
 10
44856.3895311473825132
 20
21172.9129206271391013
 30
0.0
 11
44575.1300666803726926
 21
21285.4167064139401191
 31
0.0
  0
LINE
  5
1DB
  8
_0-5_
  6
CONTINUOUS
 62
     7
 10
45354.7736732704579481
 20
20896.0128905551791831
 30
0.0
 11
45098.4439808790775714
 21
20998.5447675117211475
 31
0.0
  0
LINE
  5
1DC
  8
_0-5_
  6
CONTINUOUS
 62
     7
 10
44817.184516412060475
 20
21111.0485532985294412
 30
0.0
 11
44560.8548240206873743
 21
21213.5804302550714056
 31
0.0
  0
LINE
  5
1DD
  8
_0-5_
  6
CONTINUOUS
 62
     7
 10
45315.568658535128634
 20
20834.1485232265586092
 30
0.0
 11
45084.168738219399529
 21
20926.7084913528597099
 31
0.0
  0
LINE
  5
1DE
  8
_0-5_
  6
CONTINUOUS
 62
     7
 10
44777.9795016767529887
 20
21049.1841859699197812
 30
0.0
 11
44546.5795813610166078
 21
21141.744154096209968
 31
0.0
  0
LINE
  5
1DF
  8
_0-5_
  6
CONTINUOUS
 62
     7
 10
44520.4083031516202027
 20
21010.0443144716191455
 30
0.0
 11
44603.6805519997069496
 21
21429.0892587316884601
 31
0.0
  0
LINE
  5
1E0
  8
_0-5_
  6
CONTINUOUS
 62
     7
 10
46042.6487199475523084
 20
20918.1239692381604982
 30
0.0
 11
43999.999999999992724
 21
21735.1834572171683249
 31
0.0
  0
LINE
  5
1E1
  8
_0-5_
  6
CONTINUOUS
 62
     7
 10
46009.9778743347997079
 20
20866.5703297976506292
 30
0.0
 11
43999.999999999992724
 21
21670.5614795315705123
 31
0.0
  0
LINE
  5
1E2
  8
_0-1_
  6
CONTINUOUS
 62
     4
 10
43999.999999999992724
 20
20895.0977473042003112
 30
0.0
 11
48000.0
 21
19295.0977473041893973
 31
0.0
  0
LINE
  5
1E3
  8
_0-1_
  6
CONTINUOUS
 62
     4
 10
44389.1337623249710305
 20
20997.9321531166606292
 30
0.0
 11
48000.0
 21
19553.5856580466497689
 31
0.0
  0
LINE
  5
1E4
  8
_0-2_
  6
DASHED1
 62
     7
 10
44396.5615758520725649
 20
21016.5016869343708095
 30
0.0
 11
48000.0
 21
19575.1263172751787351
 31
0.0
  0
LINE
  5
1E5
  8
_0-1_
  6
CONTINUOUS
 62
     4
 10
45049.999999999992724
 20
19505.7680820199893788
 30
0.0
 11
48000.0
 21
18325.7680820199784648
 31
0.0
  0
LINE
  5
1E6
  8
_0-1_
  6
CONTINUOUS
 62
     4
 10
43610.8662376749998657
 20
20997.9321531166606292
 30
0.0
 11
43699.999999999992724
 21
20775.0977473042003112
 31
0.0
  0
LINE
  5
1E7
  8
_0-3_
  6
CONTINUOUS
 62
     2
 10
40000.0
 20
19596.6669765037295292
 30
0.0
 11
43699.999999999992724
 21
21076.6669765037404431
 31
0.0
  0
LINE
  5
1E8
  8
_0-5_
  6
CONTINUOUS
 62
     7
 10
42527.6112825235686614
 20
21081.6059925410008873
 30
0.0
 11
42723.6363562001570244
 21
20772.2841558979489491
 31
0.0
  0
LINE
  5
1E9
  8
_0-5_
  6
CONTINUOUS
 62
     7
 10
42218.7180449545485317
 20
20505.694853714088822
 30
0.0
 11
41957.3512800524113118
 21
20918.1239692381604982
 31
0.0
  0
LINE
  5
1EA
  8
_0-5_
  6
CONTINUOUS
 62
     7
 10
43479.5916968483725213
 20
21010.0443144716191455
 30
0.0
 11
42218.7180449545485317
 21
20505.694853714088822
 31
0.0
  0
LINE
  5
1EB
  8
_0-5_
  6
CONTINUOUS
 62
     7
 10
42321.1411342834835523
 20
20999.017933244969754
 30
0.0
 11
42392.5173475818519364
 21
20639.8365524506298243
 31
0.0
  0
LINE
  5
1EC
  8
_0-5_
  6
CONTINUOUS
 62
     7
 10
43065.2004393819588586
 20
21296.6416552843584213
 30
0.0
 11
43261.2255130585617735
 21
20987.3198186413210351
 31
0.0
  0
LINE
  5
1ED
  8
_0-5_
  6
CONTINUOUS
 62
     7
 10
42858.7302911418664735
 20
21214.0535959883200121
 30
0.0
 11
42930.1065044402494095
 21
20854.8722151939909963
 31
0.0
  0
LINE
  5
1EE
  8
_0-5_
  6
CONTINUOUS
 62
     7
 10
42186.0471993417668273
 20
20557.248493154598691
 30
0.0
 11
43467.6956612986323307
 21
21069.9078779373412544
 31
0.0
  0
LINE
  5
1EF
  8
_0-5_
  6
CONTINUOUS
 62
     7
 10
42029.2271404005005024
 20
20804.7059624690409692
 30
0.0
 11
42335.4163769431615947
 21
20927.1816570861010405
 31
0.0
  0
LINE
  5
1F0
  8
_0-5_
  6
CONTINUOUS
 62
     7
 10
42068.4321551358298166
 20
20742.8415951404203952
 30
0.0
 11
42349.6916196028323611
 21
20855.345380927228689
 31
0.0
  0
LINE
  5
1F1
  8
_0-5_
  6
CONTINUOUS
 62
     7
 10
42107.6371698711373028
 20
20680.9772278118216491
 30
0.0
 11
42363.9668622625104035
 21
20783.5091047683708894
 31
0.0
  0
LINE
  5
1F2
  8
_0-5_
  6
CONTINUOUS
 62
     7
 10
42146.8421846064520651
 20
20619.1128604832083511
 30
0.0
 11
42378.24210492218117
 21
20711.6728286094912619
 31
0.0
  0
LINE
  5
1F3
  8
_0-5_
  6
CONTINUOUS
 62
     7
 10
42566.8162972588979756
 20
21019.7416252123985032
 30
0.0
 11
42873.0055338015517918
 21
21142.2173198294512986
 31
0.0
  0
LINE
  5
1F4
  8
_0-5_
  6
CONTINUOUS
 62
     7
 10
43104.4054541172808968
 20
21234.7772879557487613
 30
0.0
 11
43410.5946906599274371
 21
21357.2529825728088326
 31
0.0
  0
LINE
  5
1F5
  8
_0-5_
  6
CONTINUOUS
 62
     7
 10
42606.0213119941981859
 20
20957.8772578837888432
 30
0.0
 11
42887.2807764612080064
 21
21070.381043670589861
 31
0.0
  0
LINE
  5
1F6
  8
_0-5_
  6
CONTINUOUS
 62
     7
 10
43143.6104688526029349
 20
21172.9129206271391013
 30
0.0
 11
43424.8699333196127554
 21
21285.4167064139401191
 31
0.0
  0
LINE
  5
1F7
  8
_0-5_
  6
CONTINUOUS
 62
     7
 10
42645.226326729520224
 20
20896.0128905551791831
 30
0.0
 11
42901.5560191209006007
 21
20998.5447675117211475
 31
0.0
  0
LINE
  5
1F8
  8
_0-5_
  6
CONTINUOUS
 62
     7
 10
43182.8154835879322491
 20
21111.0485532985294412
 30
0.0
 11
43439.1451759792835219
 21
21213.5804302550714056
 31
0.0
  0
LINE
  5
1F9
  8
_0-5_
  6
CONTINUOUS
 62
     7
 10
42684.4313414648422622
 20
20834.1485232265586092
 30
0.0
 11
42915.8312617805786431
 21
20926.7084913528597099
 31
0.0
  0
LINE
  5
1FA
  8
_0-5_
  6
CONTINUOUS
 62
     7
 10
43222.0204983232324594
 20
21049.1841859699197812
 30
0.0
 11
43453.4204186389688402
 21
21141.744154096209968
 31
0.0
  0
LINE
  5
1FB
  8
_0-5_
  6
CONTINUOUS
 62
     7
 10
43479.5916968483725213
 20
21010.0443144716191455
 30
0.0
 11
43396.3194480002712226
 21
21429.0892587316884601
 31
0.0
  0
LINE
  5
1FC
  8
_0-5_
  6
CONTINUOUS
 62
     7
 10
41957.3512800524113118
 20
20918.1239692381604982
 30
0.0
 11
43999.999999999992724
 21
21735.1834572171683249
 31
0.0
  0
LINE
  5
1FD
  8
_0-5_
  6
CONTINUOUS
 62
     7
 10
41990.0221256651930162
 20
20866.5703297976506292
 30
0.0
 11
43999.999999999992724
 21
21670.5614795315705123
 31
0.0
  0
LINE
  5
1FE
  8
_0-1_
  6
CONTINUOUS
 62
     4
 10
43999.999999999992724
 20
20895.0977473042003112
 30
0.0
 11
40000.0
 21
19295.0977473041893973
 31
0.0
  0
LINE
  5
1FF
  8
_0-1_
  6
CONTINUOUS
 62
     4
 10
43610.8662376749998657
 20
20997.9321531166606292
 30
0.0
 11
40000.0
 21
19553.5856580466497689
 31
0.0
  0
LINE
  5
200
  8
_0-2_
  6
DASHED1
 62
     7
 10
43603.4384241479128832
 20
21016.5016869343708095
 30
0.0
 11
40000.0
 21
19575.1263172751787351
 31
0.0
  0
LINE
  5
201
  8
_0-1_
  6
CONTINUOUS
 62
     4
 10
42949.999999999992724
 20
19505.7680820199893788
 30
0.0
 11
40000.0
 21
18325.7680820199784648
 31
0.0
  0
LINE
  5
202
  8
_0-4_
  6
CONTINUOUS
 62
     3
 10
48000.0
 20
14700.0
 30
0.0
 11
48000.0
 21
24700.0
 31
0.0
  0
LINE
  5
203
  8
_0-4_
  6
CONTINUOUS
 62
     3
 10
40000.0
 20
14700.0
 30
0.0
 11
48000.0
 21
14700.0
 31
0.0
  0
LINE
  5
204
  8
_0-1_
  6
CONTINUOUS
 62
     4
 10
42949.999999999992724
 20
17625.7680820199893788
 30
0.0
 11
45049.999999999992724
 21
17625.7680820199893788
 31
0.0
  0
LINE
  5
205
  8
_0-1_
  6
CONTINUOUS
 62
     4
 10
42949.999999999992724
 20
17625.7680820199893788
 30
0.0
 11
42949.999999999992724
 21
19725.7680820199893788
 31
0.0
  0
LINE
  5
206
  8
_0-1_
  6
CONTINUOUS
 62
     4
 10
42949.999999999992724
 20
19725.7680820199893788
 30
0.0
 11
45049.999999999992724
 21
19725.7680820199893788
 31
0.0
  0
LINE
  5
207
  8
_0-1_
  6
CONTINUOUS
 62
     4
 10
45049.999999999992724
 20
17625.7680820199893788
 30
0.0
 11
45049.999999999992724
 21
19725.7680820199893788
 31
0.0
  0
LINE
  5
208
  8
_0-1_
  6
CONTINUOUS
 62
     4
 10
45049.999999999992724
 20
19725.7680820199893788
 30
0.0
 11
42949.999999999992724
 21
17625.7680820199893788
 31
0.0
  0
LINE
  5
209
  8
_0-1_
  6
CONTINUOUS
 62
     4
 10
45049.999999999992724
 20
17625.7680820199893788
 30
0.0
 11
42949.999999999992724
 21
19725.7680820199893788
 31
0.0
  0
LINE
  5
20A
  8
_0-1_
  6
CONTINUOUS
 62
     4
 10
44499.999999999992724
 20
19725.7680820199893788
 30
0.0
 11
43999.999999999992724
 21
19925.7680820199893788
 31
0.0
  0
LINE
  5
20B
  8
_0-1_
  6
CONTINUOUS
 62
     4
 10
43499.999999999992724
 20
19725.7680820199893788
 30
0.0
 11
43999.999999999992724
 21
19925.7680820199893788
 31
0.0
  0
LINE
  5
20C
  8
_0-4_
  6
CONTINUOUS
 62
     3
 10
56000.0
 20
14700.0
 30
0.0
 11
56000.0
 21
24700.0
 31
0.0
  0
LINE
  5
20D
  8
_0-4_
  6
CONTINUOUS
 62
     3
 10
48000.0
 20
14700.0
 30
0.0
 11
56000.0
 21
14700.0
 31
0.0
  0
LINE
  5
20E
  8
_0-1_
  6
CONTINUOUS
 62
     4
 10
50949.999999999992724
 20
17625.7680820199893788
 30
0.0
 11
53050.0
 21
17625.7680820199893788
 31
0.0
  0
LINE
  5
20F
  8
_0-1_
  6
CONTINUOUS
 62
     4
 10
50949.999999999992724
 20
17625.7680820199893788
 30
0.0
 11
50949.999999999992724
 21
19725.7680820199893788
 31
0.0
  0
LINE
  5
210
  8
_0-1_
  6
CONTINUOUS
 62
     4
 10
50949.999999999992724
 20
19725.7680820199893788
 30
0.0
 11
53050.0
 21
19725.7680820199893788
 31
0.0
  0
LINE
  5
211
  8
_0-1_
  6
CONTINUOUS
 62
     4
 10
53050.0
 20
17625.7680820199893788
 30
0.0
 11
53050.0
 21
19725.7680820199893788
 31
0.0
  0
LINE
  5
212
  8
_0-1_
  6
CONTINUOUS
 62
     4
 10
53050.0
 20
19725.7680820199893788
 30
0.0
 11
50949.999999999992724
 21
17625.7680820199893788
 31
0.0
  0
LINE
  5
213
  8
_0-1_
  6
CONTINUOUS
 62
     4
 10
53050.0
 20
17625.7680820199893788
 30
0.0
 11
50949.999999999992724
 21
19725.7680820199893788
 31
0.0
  0
LINE
  5
214
  8
_0-1_
  6
CONTINUOUS
 62
     4
 10
48000.0
 20
19943.591594466688548
 30
0.0
 11
52000.0
 21
20743.591594466688548
 31
0.0
  0
LINE
  5
215
  8
_0-1_
  6
CONTINUOUS
 62
     4
 10
48000.0
 20
20188.3445311191389919
 30
0.0
 11
51652.9321275668189628
 21
20918.9309566325100604
 31
0.0
  0
LINE
  5
216
  8
_0-1_
  6
CONTINUOUS
 62
     4
 10
51700.0
 20
20683.591594466688548
 30
0.0
 11
51652.9321275668189628
 21
20918.9309566325100604
 31
0.0
  0
LINE
  5
217
  8
_0-2_
  6
DASHED1
 62
     7
 10
48000.0
 20
20208.7406091735210794
 30
0.0
 11
51649.0098048640720663
 21
20938.5425701463282167
 31
0.0
  0
LINE
  5
218
  8
_0-3_
  6
CONTINUOUS
 62
     2
 10
48000.0
 20
20229.1366872278886149
 30
0.0
 11
51700.0
 21
20969.1366872278886149
 31
0.0
  0
LINE
  5
219
  8
_0-3_
  6
CONTINUOUS
 62
     2
 10
51700.0
 20
20969.1366872278886149
 30
0.0
 11
51660.7767729723418597
 21
21165.2528223660810909
 31
0.0
  0
LINE
  5
21A
  8
_0-1_
  6
CONTINUOUS
 62
     4
 10
52000.0
 20
19825.7680820199893788
 30
0.0
 11
51500.0
 21
19725.7680820199893788
 31
0.0
  0
LINE
  5
21B
  8
_0-1_
  6
CONTINUOUS
 62
     4
 10
50949.999999999992724
 20
19615.7680820199893788
 30
0.0
 11
48000.0
 21
19025.7680820199893788
 31
0.0
  0
LINE
  5
21C
  8
_0-1_
  6
CONTINUOUS
 62
     4
 10
55999.9999999999708962
 20
20188.3445311191389919
 30
0.0
 11
52347.0678724331592093
 21
20918.9309566325100604
 31
0.0
  0
LINE
  5
21D
  8
_0-1_
  6
CONTINUOUS
 62
     4
 10
52300.0
 20
20683.591594466688548
 30
0.0
 11
52347.0678724331592093
 21
20918.9309566325100604
 31
0.0
  0
LINE
  5
21E
  8
_0-2_
  6
DASHED1
 62
     7
 10
55999.9999999999708962
 20
20208.7406091735210794
 30
0.0
 11
52350.9901951359206578
 21
20938.5425701463282167
 31
0.0
  0
LINE
  5
21F
  8
_0-3_
  6
CONTINUOUS
 62
     2
 10
55999.9999999999708962
 20
20229.1366872278886149
 30
0.0
 11
52300.0
 21
20969.1366872278886149
 31
0.0
  0
LINE
  5
220
  8
_0-3_
  6
CONTINUOUS
 62
     2
 10
52300.0
 20
20969.1366872278886149
 30
0.0
 11
52339.2232270276217605
 21
21165.2528223660810909
 31
0.0
  0
LINE
  5
221
  8
_0-1_
  6
CONTINUOUS
 62
     4
 10
52000.0
 20
19825.7680820199893788
 30
0.0
 11
52500.0
 21
19725.7680820199893788
 31
0.0
  0
LINE
  5
222
  8
_0-1_
  6
CONTINUOUS
 62
     4
 10
53050.0
 20
19615.7680820199893788
 30
0.0
 11
55999.9999999999708962
 21
19025.7680820199893788
 31
0.0
  0
LINE
  5
223
  8
_0-1_
  6
CONTINUOUS
 62
     4
 10
55999.9999999999708962
 20
19943.591594466688548
 30
0.0
 11
52000.0
 21
20743.591594466688548
 31
0.0
  0
LINE
  5
224
  8
_0-5_
  6
CONTINUOUS
 62
     7
 10
52520.2015218876113067
 20
21582.5034353634109721
 30
0.0
 11
53781.0751737814280204
 21
21078.1539746058806486
 31
0.0
  0
LINE
  5
225
  8
_0-5_
  6
CONTINUOUS
 62
     7
 10
53813.7460193942024489
 20
21129.7076140463905176
 30
0.0
 11
52532.0975574373369454
 21
21642.366998829140357
 31
0.0
  0
LINE
  5
226
  8
_0-5_
  6
CONTINUOUS
 62
     7
 10
53781.0751737814280204
 20
21078.1539746058806486
 30
0.0
 11
54042.4419386835725163
 21
21490.5830901299486868
 31
0.0
  0
LINE
  5
227
  8
_0-5_
  6
CONTINUOUS
 62
     7
 10
53852.951034129531763
 20
21191.5719813750110916
 30
0.0
 11
53621.5511138137808302
 21
21284.1319495012903644
 31
0.0
  0
LINE
  5
228
  8
_0-5_
  6
CONTINUOUS
 62
     7
 10
52856.1827498833808932
 20
21745.3720415189309279
 30
0.0
 11
52574.9232854163565207
 21
21857.8758273057283077
 31
0.0
  0
LINE
  5
229
  8
_0-5_
  6
CONTINUOUS
 62
     7
 10
52816.9777351480734069
 20
21683.5076741903212678
 30
0.0
 11
52560.6480427566712024
 21
21786.0395511468705081
 31
0.0
  0
LINE
  5
22A
  8
_0-5_
  6
CONTINUOUS
 62
     7
 10
52777.7727204127368168
 20
21621.6433068617116078
 30
0.0
 11
52546.3728000970077119
 21
21714.2032749880017946
 31
0.0
  0
LINE
  5
22B
  8
_0-5_
  6
CONTINUOUS
 62
     7
 10
52520.2015218876113067
 20
21582.5034353634109721
 30
0.0
 11
52603.4737707356980536
 21
22001.5483796234802867
 31
0.0
  0
LINE
  5
22C
  8
_0-5_
  6
CONTINUOUS
 62
     7
 10
54042.4419386835725163
 20
21490.5830901299486868
 30
0.0
 11
51999.7932187359692762
 21
22307.6425781089710654
 31
0.0
  0
LINE
  5
22D
  8
_0-5_
  6
CONTINUOUS
 62
     7
 10
54009.7710930707908119
 20
21439.0294506894388178
 30
0.0
 11
51999.7932187359692762
 21
22243.0206004233587009
 31
0.0
  0
LINE
  5
22E
  8
_0-4_
  6
CONTINUOUS
 62
     3
 10
54450.3087797508196672
 20
20582.1631359039311064
 30
0.0
 11
54446.3864570480582188
 21
20562.5515223900983983
 31
0.0
  0
LINE
  5
22F
  8
_0-4_
  6
CONTINUOUS
 62
     3
 10
54446.3864570480582188
 20
20562.5515223900983983
 30
0.0
 11
54289.3962261632404989
 21
20593.9495685670699459
 31
0.0
  0
LINE
  5
230
  8
_0-5_
  6
CONTINUOUS
 62
     7
 10
53141.0629275940882508
 20
21786.5127168801082007
 30
0.0
 11
53069.6867142957125907
 21
21427.3313360857791849
 31
0.0
  0
LINE
  5
231
  8
_0-5_
  6
CONTINUOUS
 62
     7
 10
53432.9769214770713006
 20
21592.2007461041903298
 30
0.0
 11
53126.7876849344320362
 21
21714.6764407212504011
 31
0.0
  0
LINE
  5
232
  8
_0-5_
  6
CONTINUOUS
 62
     7
 10
53393.7719067417492624
 20
21530.3363787755806698
 30
0.0
 11
53112.5124422747467179
 21
21642.8401645623816876
 31
0.0
  0
LINE
  5
233
  8
_0-5_
  6
CONTINUOUS
 62
     7
 10
53354.5668920064417762
 20
21468.4720114469710097
 30
0.0
 11
53098.2371996150686755
 21
21571.00388840352025
 31
0.0
  0
LINE
  5
234
  8
_0-5_
  6
CONTINUOUS
 62
     7
 10
53315.361877271127014
 20
21406.6076441183613497
 30
0.0
 11
53083.9619569553906331
 21
21499.1676122446515365
 31
0.0
  0
LINE
  5
235
  8
_0-5_
  6
CONTINUOUS
 62
     7
 10
53472.1819362124078907
 20
21654.0651134327999898
 30
0.0
 11
53276.1568625358122517
 21
21344.7432767897407757
 31
0.0
  0
LINE
  5
236
  8
_0-5_
  6
CONTINUOUS
 62
     7
 10
53678.6520844524929998
 20
21571.4770541367615806
 30
0.0
 11
53607.2758711541173398
 21
21212.2956733424289268
 31
0.0
  0
LINE
  5
237
  8
_0-5_
  6
CONTINUOUS
 62
     7
 10
52934.5927793540104176
 20
21869.1007761761502479
 30
0.0
 11
52738.5677056774293305
 21
21559.7789395330983098
 31
0.0
  0
LINE
  5
238
  8
_0-5_
  6
CONTINUOUS
 62
     7
 10
53970.5660783354687737
 20
21377.1650833608291578
 30
0.0
 11
53664.3768417928076815
 21
21499.640777977900143
 31
0.0
  0
LINE
  5
239
  8
_0-5_
  6
CONTINUOUS
 62
     7
 10
53931.3610636001612875
 20
21315.3007160322194977
 30
0.0
 11
53650.1015991331296391
 21
21427.8045018190205155
 31
0.0
  0
LINE
  5
23A
  8
_0-5_
  6
CONTINUOUS
 62
     7
 10
53892.1560488648319733
 20
21253.4363487036098377
 30
0.0
 11
53635.8263564734734246
 21
21355.968225660159078
 31
0.0
  0
LINE
  5
23B
  8
_0-5_
  6
CONTINUOUS
 62
     7
 10
52895.3877646186811035
 20
21807.2364088475515018
 30
0.0
 11
52589.1985280760200112
 21
21929.7121034646115731
 31
0.0
  0
LINE
  5
23C
  8
_0-1_
  6
CONTINUOUS
 62
     4
 10
53973.4773649902781472
 20
20635.001891237199743
 30
0.0
 11
54084.8945678964882973
 21
20913.544898502779688
 31
0.0
  0
LINE
  5
23D
  8
_0-4_
  6
CONTINUOUS
 62
     3
 10
52299.7932187359765521
 20
21649.1260973955286318
 30
0.0
 11
54110.8919152412781841
 21
20924.6866187933992478
 31
0.0
  0
LINE
  5
23E
  8
_0-4_
  6
CONTINUOUS
 62
     3
 10
54009.1733559866406722
 20
20670.3902206567690882
 30
0.0
 11
54110.8919152412781841
 21
20924.6866187933992478
 31
0.0
  0
LINE
  5
23F
  8
_0-4_
  6
CONTINUOUS
 62
     3
 10
54450.3087797508196672
 20
20582.1631359039311064
 30
0.0
 11
54009.1733559866406722
 21
20670.3902206567690882
 31
0.0
  0
LINE
  5
240
  8
_0-5_
  6
CONTINUOUS
 62
     7
 10
51479.7984781123595894
 20
21582.5034353634109721
 30
0.0
 11
50218.9248262185501517
 21
21078.1539746058806486
 31
0.0
  0
LINE
  5
241
  8
_0-5_
  6
CONTINUOUS
 62
     7
 10
50186.2539806057684473
 20
21129.7076140463905176
 30
0.0
 11
51467.9024425626485026
 21
21642.366998829140357
 31
0.0
  0
LINE
  5
242
  8
_0-5_
  6
CONTINUOUS
 62
     7
 10
50218.9248262185501517
 20
21078.1539746058806486
 30
0.0
 11
49957.5580613164420356
 21
21490.5830901299486868
 31
0.0
  0
LINE
  5
243
  8
_0-5_
  6
CONTINUOUS
 62
     7
 10
50147.048965870468237
 20
21191.5719813750110916
 30
0.0
 11
50378.4488861862118938
 21
21284.1319495012903644
 31
0.0
  0
LINE
  5
244
  8
_0-5_
  6
CONTINUOUS
 62
     7
 10
51143.8172501166118309
 20
21745.3720415189309279
 30
0.0
 11
51425.0767145836070995
 21
21857.8758273057283077
 31
0.0
  0
LINE
  5
245
  8
_0-5_
  6
CONTINUOUS
 62
     7
 10
51183.0222648519265931
 20
21683.5076741903212678
 30
0.0
 11
51439.3519572432996938
 21
21786.0395511468705081
 31
0.0
  0
LINE
  5
246
  8
_0-5_
  6
CONTINUOUS
 62
     7
 10
51222.2272795872268034
 20
21621.6433068617116078
 30
0.0
 11
51453.6271999029777362
 21
21714.2032749880017946
 31
0.0
  0
LINE
  5
247
  8
_0-5_
  6
CONTINUOUS
 62
     7
 10
51479.7984781123595894
 20
21582.5034353634109721
 30
0.0
 11
51396.5262292642801185
 21
22001.5483796234802867
 31
0.0
  0
LINE
  5
248
  8
_0-5_
  6
CONTINUOUS
 62
     7
 10
49957.5580613164420356
 20
21490.5830901299486868
 30
0.0
 11
52000.20678126400162
 21
22307.6425781089710654
 31
0.0
  0
LINE
  5
249
  8
_0-5_
  6
CONTINUOUS
 62
     7
 10
49990.2289069292019121
 20
21439.0294506894388178
 30
0.0
 11
52000.20678126400162
 21
22243.0206004233587009
 31
0.0
  0
LINE
  5
24A
  8
_0-4_
  6
CONTINUOUS
 62
     3
 10
49549.6912202491512289
 20
20582.1631359039311064
 30
0.0
 11
49553.6135429519272293
 21
20562.5515223900983983
 31
0.0
  0
LINE
  5
24B
  8
_0-4_
  6
CONTINUOUS
 62
     3
 10
49553.6135429519272293
 20
20562.5515223900983983
 30
0.0
 11
49710.6037738367522252
 21
20593.9495685670699459
 31
0.0
  0
LINE
  5
24C
  8
_0-5_
  6
CONTINUOUS
 62
     7
 10
50858.9370724058899214
 20
21786.5127168801082007
 30
0.0
 11
50930.3132857042510295
 21
21427.3313360857791849
 31
0.0
  0
LINE
  5
24D
  8
_0-5_
  6
CONTINUOUS
 62
     7
 10
50567.0230785228923196
 20
21592.2007461041903298
 30
0.0
 11
50873.2123150655534118
 21
21714.6764407212504011
 31
0.0
  0
LINE
  5
24E
  8
_0-5_
  6
CONTINUOUS
 62
     7
 10
50606.2280932582216337
 20
21530.3363787755806698
 30
0.0
 11
50887.4875577252314542
 21
21642.8401645623816876
 31
0.0
  0
LINE
  5
24F
  8
_0-5_
  6
CONTINUOUS
 62
     7
 10
50645.43310799352912
 20
21468.4720114469710097
 30
0.0
 11
50901.7628003849167726
 21
21571.00388840352025
 31
0.0
  0
LINE
  5
250
  8
_0-5_
  6
CONTINUOUS
 62
     7
 10
50684.6381227288511582
 20
21406.6076441183613497
 30
0.0
 11
50916.0380430445802631
 21
21499.1676122446515365
 31
0.0
  0
LINE
  5
251
  8
_0-5_
  6
CONTINUOUS
 62
     7
 10
50527.8180637875775574
 20
21654.0651134327999898
 30
0.0
 11
50723.8431374641731963
 21
21344.7432767897407757
 31
0.0
  0
LINE
  5
252
  8
_0-5_
  6
CONTINUOUS
 62
     7
 10
50321.3479155474924482
 20
21571.4770541367615806
 30
0.0
 11
50392.7241288458608324
 21
21212.2956733424289268
 31
0.0
  0
LINE
  5
253
  8
_0-5_
  6
CONTINUOUS
 62
     7
 10
51065.4072206459677545
 20
21869.1007761761502479
 30
0.0
 11
51261.4322943225706695
 21
21559.7789395330983098
 31
0.0
  0
LINE
  5
254
  8
_0-5_
  6
CONTINUOUS
 62
     7
 10
50029.4339216645166744
 20
21377.1650833608291578
 30
0.0
 11
50335.6231582071704906
 21
21499.640777977900143
 31
0.0
  0
LINE
  5
255
  8
_0-5_
  6
CONTINUOUS
 62
     7
 10
50068.6389363998314366
 20
21315.3007160322194977
 30
0.0
 11
50349.898400866848533
 21
21427.8045018190205155
 31
0.0
  0
LINE
  5
256
  8
_0-5_
  6
CONTINUOUS
 62
     7
 10
50107.8439511351389228
 20
21253.4363487036098377
 30
0.0
 11
50364.1736435265265754
 21
21355.968225660159078
 31
0.0
  0
LINE
  5
257
  8
_0-5_
  6
CONTINUOUS
 62
     7
 10
51104.6122353812970687
 20
21807.2364088475515018
 30
0.0
 11
51410.8014719239290571
 21
21929.7121034646115731
 31
0.0
  0
LINE
  5
258
  8
_0-1_
  6
CONTINUOUS
 62
     4
 10
50026.522635009700025
 20
20635.001891237199743
 30
0.0
 11
49915.105432103468047
 21
20913.544898502779688
 31
0.0
  0
LINE
  5
259
  8
_0-4_
  6
CONTINUOUS
 62
     3
 10
51700.20678126400162
 20
21649.1260973955286318
 30
0.0
 11
49889.1080847586927121
 21
20924.6866187933992478
 31
0.0
  0
LINE
  5
25A
  8
_0-4_
  6
CONTINUOUS
 62
     3
 10
49990.8266440133520518
 20
20670.3902206567690882
 30
0.0
 11
49889.1080847586927121
 21
20924.6866187933992478
 31
0.0
  0
LINE
  5
25B
  8
_0-4_
  6
CONTINUOUS
 62
     3
 10
49549.6912202491512289
 20
20582.1631359039311064
 30
0.0
 11
49990.8266440133520518
 21
20670.3902206567690882
 31
0.0
  0
LINE
  5
25C
  8
_0-0_
  6
CENTER1
 62
     4
 10
4000.0
 20
14700.0
 30
0.0
 11
3999.9999999999918145
 21
24400.0
 31
0.0
  0
LINE
  5
25D
  8
_0-0_
  6
CENTER1
 62
     4
 10
12000.0
 20
14700.0
 30
0.0
 11
11999.9999999999909051
 21
24400.0
 31
0.0
  0
LINE
  5
25E
  8
_0-0_
  6
CENTER1
 62
     4
 10
29764.9164689962417469
 20
14700.0
 30
0.0
 11
29764.9164689962490229
 21
24400.0
 31
0.0
  0
LINE
  5
25F
  8
_0-3_
  6
CONTINUOUS
 62
     2
 10
28034.9164689962417469
 20
20685.6312356350790651
 30
0.0
 11
28034.9164689962417469
 21
24400.0
 31
0.0
  0
LINE
  5
260
  8
_0-1_
  6
CONTINUOUS
 62
     4
 10
28354.9164689962417469
 20
20685.6312356350790651
 30
0.0
 11
28354.9164689962417469
 21
24400.0
 31
0.0
  0
LINE
  5
261
  8
_0-2_
  6
DASHED1
 62
     7
 10
28674.9164689962417469
 20
20685.6312356350790651
 30
0.0
 11
28674.9164689962417469
 21
24400.0
 31
0.0
  0
LINE
  5
262
  8
_0-1_
  6
CONTINUOUS
 62
     4
 10
30814.9164689962417469
 20
14700.0
 30
0.0
 11
30814.9164689962490229
 21
24400.0
 31
0.0
  0
LINE
  5
263
  8
_0-1_
  6
CONTINUOUS
 62
     4
 10
28714.9164689962417469
 20
14700.0
 30
0.0
 11
28714.9164689962417469
 21
24400.0
 31
0.0
  0
LINE
  5
264
  8
_0-0_
  6
CENTER1
 62
     4
 10
36000.0
 20
14700.0
 30
0.0
 11
35999.999999999992724
 21
24400.0
 31
0.0
  0
LINE
  5
265
  8
_0-0_
  6
CENTER1
 62
     4
 10
44000.0
 20
14700.0
 30
0.0
 11
43999.999999999992724
 21
24400.0
 31
0.0
  0
LINE
  5
266
  8
_0-0_
  6
CENTER1
 62
     4
 10
52000.0
 20
14700.0
 30
0.0
 11
52000.0
 21
24400.0
 31
0.0
  0
LINE
  5
267
  8
_0-4_
  6
CONTINUOUS
 62
     3
 10
8000.0
 20
24700.0
 30
0.0
 11
16000.0
 21
24700.0
 31
0.0
  0
LINE
  5
268
  8
_0-4_
  6
CONTINUOUS
 62
     3
 10
24000.0
 20
24700.0
 30
0.0
 11
32000.0
 21
24700.0
 31
0.0
  0
LINE
  5
269
  8
_0-4_
  6
CONTINUOUS
 62
     3
 10
32000.0
 20
24700.0
 30
0.0
 11
40000.0
 21
24700.0
 31
0.0
  0
LINE
  5
26A
  8
_0-4_
  6
CONTINUOUS
 62
     3
 10
40000.0
 20
24700.0
 30
0.0
 11
48000.0
 21
24700.0
 31
0.0
  0
LINE
  5
26B
  8
_0-4_
  6
CONTINUOUS
 62
     3
 10
48000.0
 20
24700.0
 30
0.0
 11
56000.0
 21
24700.0
 31
0.0
  0
LINE
  5
26C
  8
_0-4_
  6
CONTINUOUS
 62
     3
 10
0.0
 20
24700.0
 30
0.0
 11
8000.0
 21
24700.0
 31
0.0
  0
LINE
  5
26D
  8
_0-4_
  6
CONTINUOUS
 62
     3
 10
0.0
 20
24400.0
 30
0.0
 11
8000.0
 21
24400.0
 31
0.0
  0
LINE
  5
26E
  8
_0-4_
  6
CONTINUOUS
 62
     3
 10
2000.0
 20
24700.0
 30
0.0
 11
2000.0
 21
24400.0
 31
0.0
  0
LINE
  5
26F
  8
_0-4_
  6
CONTINUOUS
 62
     3
 10
4000.0
 20
24700.0
 30
0.0
 11
4000.0
 21
24400.0
 31
0.0
  0
TEXT
  5
270
  8
_0-1_
 62
     4
 10
257.3602414003544823
 20
24450.0
 30
0.0
 40
200.0
  1
ニューテッペン
  0
TEXT
  5
271
  8
_0-1_
 62
     4
 10
2457.3602414003548802
 20
24450.0
 30
0.0
 40
200.0
  1
コロニアル
  0
LINE
  5
272
  8
_0-4_
  6
CONTINUOUS
 62
     3
 10
8000.0
 20
24400.0
 30
0.0
 11
16000.0
 21
24400.0
 31
0.0
  0
LINE
  5
273
  8
_0-4_
  6
CONTINUOUS
 62
     3
 10
10000.0
 20
24700.0
 30
0.0
 11
10000.0
 21
24400.0
 31
0.0
  0
LINE
  5
274
  8
_0-4_
  6
CONTINUOUS
 62
     3
 10
12000.0
 20
24700.0
 30
0.0
 11
12000.0
 21
24400.0
 31
0.0
  0
TEXT
  5
275
  8
_0-1_
 62
     4
 10
8257.3602414003544254
 20
24450.0
 30
0.0
 40
200.0
  1
ニューテッペン
  0
LINE
  5
276
  8
_0-4_
  6
CONTINUOUS
 62
     3
 10
24000.0
 20
24400.0
 30
0.0
 11
32000.0
 21
24400.0
 31
0.0
  0
LINE
  5
277
  8
_0-4_
  6
CONTINUOUS
 62
     3
 10
26000.0
 20
24700.0
 30
0.0
 11
26000.0
 21
24400.0
 31
0.0
  0
LINE
  5
278
  8
_0-4_
  6
CONTINUOUS
 62
     3
 10
28000.0
 20
24700.0
 30
0.0
 11
28000.0
 21
24400.0
 31
0.0
  0
TEXT
  5
279
  8
_0-1_
 62
     4
 10
24257.3602414003617014
 20
24450.0
 30
0.0
 40
200.0
  1
ニューテッペン
  0
LINE
  5
27A
  8
_0-4_
  6
CONTINUOUS
 62
     3
 10
32000.0
 20
24400.0
 30
0.0
 11
40000.0
 21
24400.0
 31
0.0
  0
LINE
  5
27B
  8
_0-4_
  6
CONTINUOUS
 62
     3
 10
34000.0
 20
24700.0
 30
0.0
 11
34000.0
 21
24400.0
 31
0.0
  0
LINE
  5
27C
  8
_0-4_
  6
CONTINUOUS
 62
     3
 10
36000.0
 20
24700.0
 30
0.0
 11
36000.0
 21
24400.0
 31
0.0
  0
TEXT
  5
27D
  8
_0-1_
 62
     4
 10
32257.3602414003507874
 20
24450.0
 30
0.0
 40
200.0
  1
ニューテッペン
  0
LINE
  5
27E
  8
_0-4_
  6
CONTINUOUS
 62
     3
 10
40000.0
 20
24400.0
 30
0.0
 11
48000.0
 21
24400.0
 31
0.0
  0
LINE
  5
27F
  8
_0-4_
  6
CONTINUOUS
 62
     3
 10
42000.0
 20
24700.0
 30
0.0
 11
42000.0
 21
24400.0
 31
0.0
  0
LINE
  5
280
  8
_0-4_
  6
CONTINUOUS
 62
     3
 10
44000.0
 20
24700.0
 30
0.0
 11
44000.0
 21
24400.0
 31
0.0
  0
TEXT
  5
281
  8
_0-1_
 62
     4
 10
40257.3602414003471495
 20
24450.0
 30
0.0
 40
200.0
  1
ニューテッペン
  0
LINE
  5
282
  8
_0-4_
  6
CONTINUOUS
 62
     3
 10
48000.0
 20
24400.0
 30
0.0
 11
56000.0
 21
24400.0
 31
0.0
  0
LINE
  5
283
  8
_0-4_
  6
CONTINUOUS
 62
     3
 10
50000.0
 20
24700.0
 30
0.0
 11
50000.0
 21
24400.0
 31
0.0
  0
LINE
  5
284
  8
_0-4_
  6
CONTINUOUS
 62
     3
 10
52000.0
 20
24700.0
 30
0.0
 11
52000.0
 21
24400.0
 31
0.0
  0
TEXT
  5
285
  8
_0-1_
 62
     4
 10
48257.3602414003471495
 20
24450.0
 30
0.0
 40
200.0
  1
ニューテッペン
  0
TEXT
  5
286
  8
_0-1_
 62
     4
 10
10257.3602414003507874
 20
24450.0
 30
0.0
 40
200.0
  1
2×4コロニアル
  0
TEXT
  5
287
  8
_0-1_
 62
     4
 10
26257.3602414003507874
 20
24450.0
 30
0.0
 40
200.0
  1
下屋コロニアル
  0
TEXT
  5
288
  8
_0-1_
 62
     4
 10
34757.3602414003617014
 20
24450.0
 30
0.0
 40
200.0
  1
瓦棒
  0
TEXT
  5
289
  8
_0-1_
 62
     4
 10
42357.3602414003471495
 20
24450.0
 30
0.0
 40
200.0
  1
板金（横葺）
  0
TEXT
  5
28A
  8
_0-1_
 62
     4
 10
50257.3602414003471495
 20
24450.0
 30
0.0
 40
200.0
  1
板金（緩勾配）
  0
LINE
  5
28B
  8
_0-4_
  6
CONTINUOUS
 62
     3
 10
0.0
 20
14700.0
 30
0.0
 11
8000.0
 21
14700.0
 31
0.0
  0
TEXT
  5
28C
  8
_0-1_
 62
     4
 10
7233.8546117923970087
 20
24450.0
 30
0.0
 40
200.0
  1
S=1/5
  0
TEXT
  5
28D
  8
_0-1_
 62
     4
 10
15233.8546117923997372
 20
24450.0
 30
0.0
 40
200.0
  1
S=1/5
  0
TEXT
  5
28E
  8
_0-1_
 62
     4
 10
31233.8546117924015562
 20
24450.0
 30
0.0
 40
200.0
  1
S=1/5
  0
TEXT
  5
28F
  8
_0-1_
 62
     4
 10
39233.8546117924124701
 20
24450.0
 30
0.0
 40
200.0
  1
S=1/5
  0
TEXT
  5
290
  8
_0-1_
 62
     4
 10
47233.8546117923979182
 20
24450.0
 30
0.0
 40
200.0
  1
S=1/5
  0
TEXT
  5
291
  8
_0-1_
 62
     4
 10
55233.8546117923906422
 20
24450.0
 30
0.0
 40
200.0
  1
S=1/5
  0
LINE
  5
292
  8
_0-1_
  6
CONTINUOUS
 62
     4
 10
35586.1566944329315447
 20
22108.1626157038190286
 30
0.0
 11
35697.5738973391707987
 21
21829.6196084382208937
 31
0.0
  0
LINE
  5
293
  8
_0-3_
  6
CONTINUOUS
 62
     4
 10
31999.9999999999890861
 20
20350.5900495025598502
 30
0.0
 11
35697.5738973391707987
 21
21829.6196084382208937
 31
0.0
  0
LINE
  5
294
  8
_0-4_
  6
CONTINUOUS
 62
     3
 10
1738.2307810035079001
 20
20917.2878517203098454
 30
0.0
 11
1745.6585945305869245
 21
20898.7183179025996651
 31
0.0
  0
LINE
  5
295
  8
_0-1_
  6
CONTINUOUS
 62
     4
 10
3899.7245173843912198
 20
21760.3446870441403007
 30
0.0
 11
3788.3073144781610608
 21
22038.8876943096984178
 31
0.0
  0
LINE
  5
296
  8
_0-4_
  6
CONTINUOUS
 62
     3
 10
2202.4691264461362152
 20
21102.9831898973607167
 30
0.0
 11
1738.2307810035079001
 21
20917.2878517203098454
 31
0.0
  0
LINE
  5
297
  8
_0-4_
  6
CONTINUOUS
 62
     3
 10
1745.6585945305869245
 20
20898.7183179025996651
 30
0.0
 11
1838.5062636191150887
 21
20935.8573855379981978
 31
0.0
  0
LINE
  5
298
  8
_0-1_
  6
CONTINUOUS
 62
     4
 10
2117.0492708846950336
 20
21370.3844768723211018
 30
0.0
 11
3788.3073144781610608
 21
22038.8876943096984178
 31
0.0
  0
LINE
  5
299
  8
_0-1_
  6
CONTINUOUS
 62
     4
 10
2228.4664737909251926
 20
21091.8414696067484329
 30
0.0
 11
2117.0492708846950336
 21
21370.3844768723211018
 31
0.0
  0
LINE
  5
29A
  8
_0-1_
  6
CONTINUOUS
 62
     4
 10
3788.3073144781610608
 20
22038.8876943096984178
 30
0.0
 11
2228.4664737909251926
 21
21091.8414696067484329
 31
0.0
  0
LINE
  5
29B
  8
_0-4_
  6
CONTINUOUS
 62
     3
 10
2202.4691264461362152
 20
21102.9831898973607167
 30
0.0
 11
2068.7684829586719388
 21
21437.2347986160602886
 31
0.0
  0
LINE
  5
29C
  8
_0-4_
  6
CONTINUOUS
 62
     3
 10
3999.9999999999918145
 20
22209.7274054326007899
 30
0.0
 11
2068.7684829586719388
 21
21437.2347986160602886
 31
0.0
  0
LINE
  5
29D
  8
_0-1_
  6
CONTINUOUS
 62
     4
 10
4100.2754826155951378
 20
21760.3446870441403007
 30
0.0
 11
4211.6926855218307537
 21
22038.8876943096984178
 31
0.0
  0
LINE
  5
29E
  8
_0-4_
  6
CONTINUOUS
 62
     3
 10
5797.5308735538501423
 20
21102.9831898973716307
 30
0.0
 11
6261.7692189964773206
 21
20917.2878517203098454
 31
0.0
  0
LINE
  5
29F
  8
_0-4_
  6
CONTINUOUS
 62
     3
 10
6254.3414054693957951
 20
20898.7183179025887512
 30
0.0
 11
6161.4937363808730879
 21
20935.8573855380091118
 31
0.0
  0
LINE
  5
2A0
  8
_0-1_
  6
CONTINUOUS
 62
     4
 10
5882.950729115293143
 20
21370.3844768723211018
 30
0.0
 11
4211.6926855218307537
 21
22038.8876943096984178
 31
0.0
  0
LINE
  5
2A1
  8
_0-1_
  6
CONTINUOUS
 62
     4
 10
5771.533526209061165
 20
21091.8414696067411569
 30
0.0
 11
5882.950729115293143
 21
21370.3844768723211018
 31
0.0
  0
LINE
  5
2A2
  8
_0-1_
  6
CONTINUOUS
 62
     4
 10
4211.6926855218307537
 20
22038.8876943096984178
 30
0.0
 11
5771.533526209061165
 21
21091.8414696067411569
 31
0.0
  0
LINE
  5
2A3
  8
_0-4_
  6
CONTINUOUS
 62
     3
 10
5797.5308735538501423
 20
21102.9831898973716307
 30
0.0
 11
5931.2315170413166925
 21
21437.2347986160602886
 31
0.0
  0
LINE
  5
2A4
  8
_0-4_
  6
CONTINUOUS
 62
     3
 10
3999.9999999999918145
 20
22209.7274054326007899
 30
0.0
 11
5931.2315170413166925
 21
21437.2347986160602886
 31
0.0
  0
LINE
  5
2A5
  8
_0-4_
  6
CONTINUOUS
 62
     3
 10
6261.7692189964773206
 20
20917.2878517203098454
 30
0.0
 11
6254.3414054693957951
 21
20898.7183179025887512
 31
0.0
  0
LINE
  5
2A6
  8
_0-4_
  6
CONTINUOUS
 62
     3
 10
3650.8927642271360128
 20
21121.6460598802004824
 30
0.0
 11
3628.6093236458868887
 21
21177.3546613333091955
 31
0.0
  0
LINE
  5
2A7
  8
_0-4_
  6
CONTINUOUS
 62
     3
 10
4349.1072357728544375
 20
21121.6460598802004824
 30
0.0
 11
4371.3906763541017426
 21
21177.3546613333091955
 31
0.0
  0
LINE
  5
2A8
  8
_0-4_
  6
CONTINUOUS
 62
     3
 10
11636.037137172970688
 20
21115.7038090585410828
 30
0.0
 11
11613.7536965917297493
 21
21171.4124105116607097
 31
0.0
  0
LINE
  5
2A9
  8
_0-4_
  6
CONTINUOUS
 62
     3
 10
12363.9628628270202171
 20
21115.7038090585410828
 30
0.0
 11
12386.2463034082593367
 21
21171.4124105116607097
 31
0.0
  0
LINE
  5
2AA
  8
_0-4_
  6
CONTINUOUS
 62
     3
 10
28218.0794105285494879
 20
19423.9700502622908971
 30
0.0
 11
28195.7959699473103683
 21
19479.6786517153996101
 31
0.0
  0
LINE
  5
2AB
  8
_0-4_
  6
CONTINUOUS
 62
     3
 10
35699.9999999999781721
 20
22175.2405971591797424
 30
0.0
 11
35677.7165594187536044
 21
22230.9491986122884555
 31
0.0
  0
LINE
  5
2AC
  8
_0-4_
  6
CONTINUOUS
 62
     3
 10
36299.999999999992724
 20
22175.2405971591797424
 30
0.0
 11
36322.2834405812391196
 21
22230.9491986122884555
 31
0.0
  0
LINE
  5
2AD
  8
_0-3_
  6
CONTINUOUS
 62
     2
 10
43699.999999999992724
 20
21076.6669765037404431
 30
0.0
 11
43677.7165594187390525
 21
21132.3755779568491562
 31
0.0
  0
LINE
  5
2AE
  8
_0-3_
  6
CONTINUOUS
 62
     2
 10
44299.999999999992724
 20
21076.6669765037404431
 30
0.0
 11
44322.2834405812391196
 21
21132.3755779568491562
 31
0.0
  0
LINE
  5
2AF
  8
_0-4_
  6
CONTINUOUS
 62
     3
 10
52299.7932187359765521
 20
21649.1260973955286318
 30
0.0
 11
52322.0766593172302237
 21
21704.8346988486482587
 31
0.0
  0
LINE
  5
2B0
  8
_0-4_
  6
CONTINUOUS
 62
     3
 10
51700.20678126400162
 20
21649.1260973955286318
 30
0.0
 11
51677.9233406827625004
 21
21704.8346988486482587
 31
0.0
  0
LINE
  5
2B1
  8
_0-1_
  6
CONTINUOUS
 62
     4
 10
51349.9623102112309425
 20
21487.4876497458790254
 30
0.0
 11
50026.522635009700025
 21
20635.001891237199743
 31
0.0
  0
LINE
  5
2B2
  8
_0-1_
  6
CONTINUOUS
 62
     4
 10
52650.0376897887399537
 20
21487.4876497458790254
 30
0.0
 11
53973.4773649902781472
 21
20635.001891237199743
 31
0.0
  0
LINE
  5
2B3
  8
_0-1_
  6
CONTINUOUS
 62
     4
 10
49915.105432103468047
 20
20913.544898502779688
 30
0.0
 11
51349.9623102112309425
 21
21487.4876497458790254
 31
0.0
  0
LINE
  5
2B4
  8
_0-1_
  6
CONTINUOUS
 62
     4
 10
51567.6652077921316959
 20
20943.2304057936817117
 30
0.0
 11
51349.9623102112309425
 21
21487.4876497458790254
 31
0.0
  0
LINE
  5
2B5
  8
_0-1_
  6
CONTINUOUS
 62
     4
 10
52432.3347922078464762
 20
20943.2304057936817117
 30
0.0
 11
52650.0376897887399537
 21
21487.4876497458790254
 31
0.0
  0
LINE
  5
2B6
  8
_0-1_
  6
CONTINUOUS
 62
     4
 10
54084.8945678964882973
 20
20913.544898502779688
 30
0.0
 11
52650.0376897887399537
 21
21487.4876497458790254
 31
0.0
  0
LINE
  5
2B7
  8
_0-1_
  6
CONTINUOUS
 62
     4
 10
11899.7245173843894008
 20
21760.3446870441584906
 30
0.0
 11
11788.3073144781501469
 21
22038.8876943097202457
 31
0.0
  0
LINE
  5
2B8
  8
_0-4_
  6
CONTINUOUS
 62
     3
 10
10202.4691264461307583
 20
21102.9831898973716307
 30
0.0
 11
9738.230781003507218
 21
20917.2878517203207593
 31
0.0
  0
LINE
  5
2B9
  8
_0-4_
  6
CONTINUOUS
 62
     3
 10
9738.230781003507218
 20
20917.2878517203207593
 30
0.0
 11
9745.6585945305887435
 21
20898.718317902610579
 31
0.0
  0
LINE
  5
2BA
  8
_0-4_
  6
CONTINUOUS
 62
     3
 10
9745.6585945305887435
 20
20898.718317902610579
 30
0.0
 11
9838.5062636191159982
 21
20935.8573855380200257
 31
0.0
  0
LINE
  5
2BB
  8
_0-1_
  6
CONTINUOUS
 62
     4
 10
10117.0492708846904861
 20
21370.3844768723283778
 30
0.0
 11
11788.3073144781501469
 21
22038.8876943097202457
 31
0.0
  0
LINE
  5
2BC
  8
_0-1_
  6
CONTINUOUS
 62
     4
 10
10228.4664737909206451
 20
21091.8414696067593468
 30
0.0
 11
10117.0492708846904861
 21
21370.3844768723283778
 31
0.0
  0
LINE
  5
2BD
  8
_0-1_
  6
CONTINUOUS
 62
     4
 10
11788.3073144781501469
 20
22038.8876943097202457
 30
0.0
 11
10228.4664737909206451
 21
21091.8414696067593468
 31
0.0
  0
LINE
  5
2BE
  8
_0-4_
  6
CONTINUOUS
 62
     3
 10
10202.4691264461307583
 20
21102.9831898973716307
 30
0.0
 11
10068.7684829586705746
 21
21437.2347986160784785
 31
0.0
  0
LINE
  5
2BF
  8
_0-4_
  6
CONTINUOUS
 62
     3
 10
11999.9999999999909051
 20
22209.7274054326117039
 30
0.0
 11
10068.7684829586705746
 21
21437.2347986160784785
 31
0.0
  0
LINE
  5
2C0
  8
_0-1_
  6
CONTINUOUS
 62
     4
 10
12100.2754826155905903
 20
21760.3446870441584906
 30
0.0
 11
12211.6926855218298442
 21
22038.8876943097202457
 31
0.0
  0
LINE
  5
2C1
  8
_0-4_
  6
CONTINUOUS
 62
     3
 10
13797.5308735538492328
 20
21102.9831898973716307
 30
0.0
 11
14261.7692189964691352
 21
20917.2878517203207593
 31
0.0
  0
LINE
  5
2C2
  8
_0-4_
  6
CONTINUOUS
 62
     3
 10
14261.7692189964691352
 20
20917.2878517203207593
 30
0.0
 11
14254.3414054694003426
 21
20898.718317902610579
 31
0.0
  0
LINE
  5
2C3
  8
_0-4_
  6
CONTINUOUS
 62
     3
 10
14254.3414054694003426
 20
20898.718317902610579
 30
0.0
 11
14161.4937363808694499
 21
20935.8573855380200257
 31
0.0
  0
LINE
  5
2C4
  8
_0-1_
  6
CONTINUOUS
 62
     4
 10
13882.950729115289505
 20
21370.3844768723283778
 30
0.0
 11
12211.6926855218298442
 21
22038.8876943097202457
 31
0.0
  0
LINE
  5
2C5
  8
_0-1_
  6
CONTINUOUS
 62
     4
 10
13771.533526209059346
 20
21091.8414696067593468
 30
0.0
 11
13882.950729115289505
 21
21370.3844768723283778
 31
0.0
  0
LINE
  5
2C6
  8
_0-1_
  6
CONTINUOUS
 62
     4
 10
12211.6926855218298442
 20
22038.8876943097202457
 30
0.0
 11
13771.533526209059346
 21
21091.8414696067593468
 31
0.0
  0
LINE
  5
2C7
  8
_0-4_
  6
CONTINUOUS
 62
     3
 10
13797.5308735538492328
 20
21102.9831898973716307
 30
0.0
 11
13931.2315170413203305
 21
21437.2347986160784785
 31
0.0
  0
LINE
  5
2C8
  8
_0-4_
  6
CONTINUOUS
 62
     3
 10
11999.9999999999909051
 20
22209.7274054326117039
 30
0.0
 11
13931.2315170413203305
 21
21437.2347986160784785
 31
0.0
  0
LINE
  5
2C9
  8
_0-1_
  6
CONTINUOUS
 62
     4
 10
35899.7245173843912198
 20
22793.6468848263903055
 30
0.0
 11
35788.3073144781665178
 21
23072.1898920919484226
 31
0.0
  0
LINE
  5
2CA
  8
_0-4_
  6
CONTINUOUS
 62
     3
 10
34202.4691264461434912
 20
22136.2853876795998076
 30
0.0
 11
33738.2307810035126749
 21
21950.5900495025416603
 31
0.0
  0
LINE
  5
2CB
  8
_0-4_
  6
CONTINUOUS
 62
     3
 10
33738.2307810035126749
 20
21950.5900495025416603
 30
0.0
 11
33745.6585945305778296
 21
21932.020515684838756
 31
0.0
  0
LINE
  5
2CC
  8
_0-4_
  6
CONTINUOUS
 62
     3
 10
33745.6585945305778296
 20
21932.020515684838756
 30
0.0
 11
33838.5062636191069032
 21
21969.1595833202482027
 31
0.0
  0
LINE
  5
2CD
  8
_0-1_
  6
CONTINUOUS
 62
     4
 10
34117.0492708846868481
 20
22403.6866746545711067
 30
0.0
 11
35788.3073144781665178
 21
23072.1898920919484226
 31
0.0
  0
LINE
  5
2CE
  8
_0-1_
  6
CONTINUOUS
 62
     4
 10
34228.4664737909188261
 20
22125.1436673889911617
 30
0.0
 11
34117.0492708846868481
 21
22403.6866746545711067
 31
0.0
  0
LINE
  5
2CF
  8
_0-1_
  6
CONTINUOUS
 62
     4
 10
35788.3073144781665178
 20
23072.1898920919484226
 30
0.0
 11
34228.4664737909188261
 21
22125.1436673889911617
 31
0.0
  0
LINE
  5
2D0
  8
_0-4_
  6
CONTINUOUS
 62
     3
 10
34202.4691264461434912
 20
22136.2853876795998076
 30
0.0
 11
34068.7684829586723936
 21
22470.5369963983102934
 31
0.0
  0
LINE
  5
2D1
  8
_0-4_
  6
CONTINUOUS
 62
     3
 10
35999.999999999992724
 20
23243.0296032148398808
 30
0.0
 11
34068.7684829586723936
 21
22470.5369963983102934
 31
0.0
  0
LINE
  5
2D2
  8
_0-1_
  6
CONTINUOUS
 62
     4
 10
36100.2754826156015042
 20
22793.6468848263903055
 30
0.0
 11
36211.6926855218407582
 21
23072.1898920919484226
 31
0.0
  0
LINE
  5
2D3
  8
_0-4_
  6
CONTINUOUS
 62
     3
 10
37797.5308735538565088
 20
22136.2853876795998076
 30
0.0
 11
38261.7692189964800491
 21
21950.5900495025416603
 31
0.0
  0
LINE
  5
2D4
  8
_0-4_
  6
CONTINUOUS
 62
     3
 10
38261.7692189964800491
 20
21950.5900495025416603
 30
0.0
 11
38254.3414054694003426
 21
21932.020515684838756
 31
0.0
  0
LINE
  5
2D5
  8
_0-4_
  6
CONTINUOUS
 62
     3
 10
38254.3414054694003426
 20
21932.020515684838756
 30
0.0
 11
38161.4937363808712689
 21
21969.1595833202482027
 31
0.0
  0
LINE
  5
2D6
  8
_0-1_
  6
CONTINUOUS
 62
     4
 10
37882.950729115291324
 20
22403.6866746545711067
 30
0.0
 11
36211.6926855218407582
 21
23072.1898920919484226
 31
0.0
  0
LINE
  5
2D7
  8
_0-1_
  6
CONTINUOUS
 62
     4
 10
37771.533526209059346
 20
22125.1436673889911617
 30
0.0
 11
37882.950729115291324
 21
22403.6866746545711067
 31
0.0
  0
LINE
  5
2D8
  8
_0-1_
  6
CONTINUOUS
 62
     4
 10
36211.6926855218407582
 20
23072.1898920919484226
 30
0.0
 11
37771.533526209059346
 21
22125.1436673889911617
 31
0.0
  0
LINE
  5
2D9
  8
_0-4_
  6
CONTINUOUS
 62
     3
 10
37797.5308735538565088
 20
22136.2853876795998076
 30
0.0
 11
37931.2315170413203305
 21
22470.5369963983102934
 31
0.0
  0
LINE
  5
2DA
  8
_0-4_
  6
CONTINUOUS
 62
     3
 10
35999.999999999992724
 20
23243.0296032148398808
 30
0.0
 11
37931.2315170413203305
 21
22470.5369963983102934
 31
0.0
  0
LINE
  5
2DB
  8
_0-1_
  6
CONTINUOUS
 62
     4
 10
43899.7245173843912198
 20
21695.0732641709400923
 30
0.0
 11
43788.3073144781592418
 21
21973.6162714365091233
 31
0.0
  0
LINE
  5
2DC
  8
_0-4_
  6
CONTINUOUS
 62
     3
 10
42202.4691264461289393
 20
21037.7117670241605083
 30
0.0
 11
41738.2307810035126749
 21
20852.016428847109637
 31
0.0
  0
LINE
  5
2DD
  8
_0-4_
  6
CONTINUOUS
 62
     3
 10
41738.2307810035126749
 20
20852.016428847109637
 30
0.0
 11
41745.6585945305778296
 21
20833.4468950293994567
 31
0.0
  0
LINE
  5
2DE
  8
_0-4_
  6
CONTINUOUS
 62
     3
 10
41745.6585945305778296
 20
20833.4468950293994567
 30
0.0
 11
41838.5062636191214551
 21
20870.5859626648016274
 31
0.0
  0
LINE
  5
2DF
  8
_0-1_
  6
CONTINUOUS
 62
     4
 10
42117.0492708846868481
 20
21305.1130539991318074
 30
0.0
 11
43788.3073144781592418
 21
21973.6162714365091233
 31
0.0
  0
LINE
  5
2E0
  8
_0-1_
  6
CONTINUOUS
 62
     4
 10
42228.4664737909188261
 20
21026.5700467335409485
 30
0.0
 11
42117.0492708846868481
 21
21305.1130539991318074
 31
0.0
  0
LINE
  5
2E1
  8
_0-1_
  6
CONTINUOUS
 62
     4
 10
43788.3073144781592418
 20
21973.6162714365091233
 30
0.0
 11
42228.4664737909188261
 21
21026.5700467335409485
 31
0.0
  0
LINE
  5
2E2
  8
_0-4_
  6
CONTINUOUS
 62
     3
 10
42202.4691264461289393
 20
21037.7117670241605083
 30
0.0
 11
42068.7684829586723936
 21
21371.9633757428600802
 31
0.0
  0
LINE
  5
2E3
  8
_0-4_
  6
CONTINUOUS
 62
     3
 10
43999.999999999992724
 20
22144.4559825594005815
 30
0.0
 11
42068.7684829586723936
 21
21371.9633757428600802
 31
0.0
  0
LINE
  5
2E4
  8
_0-1_
  6
CONTINUOUS
 62
     4
 10
44100.2754826156015042
 20
21695.0732641709400923
 30
0.0
 11
44211.6926855218334822
 21
21973.6162714365091233
 31
0.0
  0
LINE
  5
2E5
  8
_0-4_
  6
CONTINUOUS
 62
     3
 10
45797.5308735538565088
 20
21037.7117670241605083
 30
0.0
 11
46261.7692189964873251
 21
20852.016428847109637
 31
0.0
  0
LINE
  5
2E6
  8
_0-4_
  6
CONTINUOUS
 62
     3
 10
46261.7692189964873251
 20
20852.016428847109637
 30
0.0
 11
46254.3414054694003426
 21
20833.4468950293994567
 31
0.0
  0
LINE
  5
2E7
  8
_0-4_
  6
CONTINUOUS
 62
     3
 10
46254.3414054694003426
 20
20833.4468950293994567
 30
0.0
 11
46161.4937363808712689
 21
20870.5859626648016274
 31
0.0
  0
LINE
  5
2E8
  8
_0-1_
  6
CONTINUOUS
 62
     4
 10
45882.9507291152767721
 20
21305.1130539991318074
 30
0.0
 11
44211.6926855218334822
 21
21973.6162714365091233
 31
0.0
  0
LINE
  5
2E9
  8
_0-1_
  6
CONTINUOUS
 62
     4
 10
45771.53352620905207
 20
21026.5700467335409485
 30
0.0
 11
45882.9507291152767721
 21
21305.1130539991318074
 31
0.0
  0
LINE
  5
2EA
  8
_0-1_
  6
CONTINUOUS
 62
     4
 10
44211.6926855218334822
 20
21973.6162714365091233
 30
0.0
 11
45771.53352620905207
 21
21026.5700467335409485
 31
0.0
  0
LINE
  5
2EB
  8
_0-4_
  6
CONTINUOUS
 62
     3
 10
45797.5308735538565088
 20
21037.7117670241605083
 30
0.0
 11
45931.2315170413203305
 21
21371.9633757428600802
 31
0.0
  0
LINE
  5
2EC
  8
_0-4_
  6
CONTINUOUS
 62
     3
 10
43999.999999999992724
 20
22144.4559825594005815
 30
0.0
 11
45931.2315170413203305
 21
21371.9633757428600802
 31
0.0
  0
LINE
  5
2ED
  8
_0-1_
  6
CONTINUOUS
 62
     4
 10
51899.5177361203823239
 20
22267.5323850627391948
 30
0.0
 11
51788.1005332141503459
 21
22546.0753923282900359
 31
0.0
  0
LINE
  5
2EE
  8
_0-4_
  6
CONTINUOUS
 62
     3
 10
50202.2623451821200433
 20
21610.1708879159486969
 30
0.0
 11
49738.0239997394892271
 21
21424.4755497388905496
 31
0.0
  0
LINE
  5
2EF
  8
_0-4_
  6
CONTINUOUS
 62
     3
 10
49738.0239997394892271
 20
21424.4755497388905496
 30
0.0
 11
49745.4518132665616577
 21
21405.9060159211912833
 31
0.0
  0
LINE
  5
2F0
  8
_0-4_
  6
CONTINUOUS
 62
     3
 10
49745.4518132665616577
 20
21405.9060159211912833
 30
0.0
 11
49838.2994823550980072
 21
21443.0450835566007299
 31
0.0
  0
LINE
  5
2F1
  8
_0-1_
  6
CONTINUOUS
 62
     4
 10
50116.8424896206779522
 20
21877.572174890919996
 30
0.0
 11
51788.1005332141503459
 21
22546.0753923282900359
 31
0.0
  0
LINE
  5
2F2
  8
_0-1_
  6
CONTINUOUS
 62
     4
 10
50228.2596925269172061
 20
21599.029167625340051
 30
0.0
 11
50116.8424896206779522
 21
21877.572174890919996
 31
0.0
  0
LINE
  5
2F3
  8
_0-1_
  6
CONTINUOUS
 62
     4
 10
51788.1005332141503459
 20
22546.0753923282900359
 30
0.0
 11
50228.2596925269172061
 21
21599.029167625340051
 31
0.0
  0
LINE
  5
2F4
  8
_0-4_
  6
CONTINUOUS
 62
     3
 10
50202.2623451821200433
 20
21610.1708879159486969
 30
0.0
 11
50068.5617016946634976
 21
21944.4224966346482688
 31
0.0
  0
LINE
  5
2F5
  8
_0-4_
  6
CONTINUOUS
 62
     3
 10
51999.7932187359692762
 20
22716.9151034511887701
 30
0.0
 11
50068.5617016946634976
 21
21944.4224966346482688
 31
0.0
  0
LINE
  5
2F6
  8
_0-1_
  6
CONTINUOUS
 62
     4
 10
52100.0687013515926083
 20
22267.5323850627391948
 30
0.0
 11
52211.4859042578318622
 21
22546.0753923282900359
 31
0.0
  0
LINE
  5
2F7
  8
_0-4_
  6
CONTINUOUS
 62
     3
 10
53797.3240922898330609
 20
21610.1708879159486969
 30
0.0
 11
54261.5624377324711531
 21
21424.4755497388905496
 31
0.0
  0
LINE
  5
2F8
  8
_0-4_
  6
CONTINUOUS
 62
     3
 10
54261.5624377324711531
 20
21424.4755497388905496
 30
0.0
 11
54254.1346242053914466
 21
21405.9060159211912833
 31
0.0
  0
LINE
  5
2F9
  8
_0-4_
  6
CONTINUOUS
 62
     3
 10
54254.1346242053914466
 20
21405.9060159211912833
 30
0.0
 11
54161.286955116862373
 21
21443.0450835566007299
 31
0.0
  0
LINE
  5
2FA
  8
_0-1_
  6
CONTINUOUS
 62
     4
 10
53882.743947851282428
 20
21877.572174890919996
 30
0.0
 11
52211.4859042578318622
 21
22546.0753923282900359
 31
0.0
  0
LINE
  5
2FB
  8
_0-1_
  6
CONTINUOUS
 62
     4
 10
53771.32674494505045
 20
21599.029167625340051
 30
0.0
 11
53882.743947851282428
 21
21877.572174890919996
 31
0.0
  0
LINE
  5
2FC
  8
_0-1_
  6
CONTINUOUS
 62
     4
 10
52211.4859042578318622
 20
22546.0753923282900359
 30
0.0
 11
53771.32674494505045
 21
21599.029167625340051
 31
0.0
  0
LINE
  5
2FD
  8
_0-4_
  6
CONTINUOUS
 62
     3
 10
53797.3240922898330609
 20
21610.1708879159486969
 30
0.0
 11
53931.0247357772896066
 21
21944.4224966346482688
 31
0.0
  0
LINE
  5
2FE
  8
_0-4_
  6
CONTINUOUS
 62
     3
 10
51999.7932187359692762
 20
22716.9151034511887701
 30
0.0
 11
53931.0247357772896066
 21
21944.4224966346482688
 31
0.0
  0
LINE
  5
2FF
  8
_0-4_
  6
CONTINUOUS
 62
     3
 10
36299.999999999992724
 20
22175.2405971591797424
 30
0.0
 11
38296.7940346823525033
 21
21376.5229832862314652
 31
0.0
  0
LINE
  5
300
  8
_0-4_
  6
CONTINUOUS
 62
     3
 10
38103.6708829782219254
 20
21432.2315847393510921
 30
0.0
 11
37769.4192742595332675
 21
20596.6025629426294472
 31
0.0
  0
LINE
  5
301
  8
_0-4_
  6
CONTINUOUS
 62
     3
 10
38296.7940346823525033
 20
21376.5229832862314652
 30
0.0
 11
38289.3662211552800727
 21
21357.9534494685212849
 31
0.0
  0
LINE
  5
302
  8
_0-4_
  6
CONTINUOUS
 62
     3
 10
38103.6708829782219254
 20
21432.2315847393510921
 30
0.0
 11
38289.3662211552800727
 21
21357.9534494685212849
 31
0.0
  0
LINE
  5
303
  8
_0-4_
  6
CONTINUOUS
 62
     3
 10
33703.2059653176402207
 20
21376.5229832862314652
 30
0.0
 11
33710.6337788447199273
 21
21357.9534494685212849
 31
0.0
  0
LINE
  5
304
  8
_0-4_
  6
CONTINUOUS
 62
     3
 10
35699.9999999999781721
 20
22175.2405971591797424
 30
0.0
 11
33703.2059653176402207
 21
21376.5229832862314652
 31
0.0
  0
LINE
  5
305
  8
_0-4_
  6
CONTINUOUS
 62
     3
 10
33896.3291170217707986
 20
21432.2315847393510921
 30
0.0
 11
33710.6337788447199273
 21
21357.9534494685212849
 31
0.0
  0
LINE
  5
306
  8
_0-4_
  6
CONTINUOUS
 62
     3
 10
33896.3291170217707986
 20
21432.2315847393510921
 30
0.0
 11
34230.5807257404594566
 21
20596.6025629426294472
 31
0.0
  0
LINE
  5
307
  8
_0-4_
  6
CONTINUOUS
 62
     3
 10
16000.0
 20
14700.0
 30
0.0
 11
16000.0
 21
24700.0
 31
0.0
  0
LINE
  5
308
  8
_0-4_
  6
CONTINUOUS
 62
     3
 10
24000.0
 20
14700.0
 30
0.0
 11
24000.0
 21
24700.0
 31
0.0
  0
LINE
  5
309
  8
_0-4_
  6
CONTINUOUS
 62
     3
 10
16000.0
 20
14700.0
 30
0.0
 11
24000.0
 21
14700.0
 31
0.0
  0
LINE
  5
30A
  8
_0-1_
  6
CONTINUOUS
 62
     4
 10
23110.6483073993695143
 20
17873.231814247348666
 30
0.0
 11
22630.6483073993695143
 21
17873.231814247348666
 31
0.0
  0
LINE
  5
30B
  8
_0-3_
  6
CONTINUOUS
 62
     2
 10
23110.6483073993695143
 20
20873.231814247348666
 30
0.0
 11
23430.6483073993695143
 21
20873.231814247348666
 31
0.0
  0
LINE
  5
30C
  8
_0-3_
  6
CONTINUOUS
 62
     2
 10
23430.6483073993695143
 20
17793.231814247348666
 30
0.0
 11
23370.6483073993695143
 21
17793.231814247348666
 31
0.0
  0
LINE
  5
30D
  8
_0-3_
  6
CONTINUOUS
 62
     2
 10
23430.6483073993695143
 20
20873.231814247348666
 30
0.0
 11
23430.6483073993695143
 21
17793.231814247348666
 31
0.0
  0
LINE
  5
30E
  8
_0-1_
  6
CONTINUOUS
 62
     4
 10
22630.6483073993695143
 20
17873.231814247348666
 30
0.0
 11
22630.6483073993695143
 21
20873.231814247348666
 31
0.0
  0
LINE
  5
30F
  8
_0-1_
  6
CONTINUOUS
 62
     4
 10
23110.6483073993695143
 20
20873.231814247348666
 30
0.0
 11
22630.6483073993695143
 21
20873.231814247348666
 31
0.0
  0
LINE
  5
310
  8
_0-3_
  6
CONTINUOUS
 62
     2
 10
23110.6483073993695143
 20
17273.231814247348666
 30
0.0
 11
23110.6483073993695143
 21
20873.231814247348666
 31
0.0
  0
LINE
  5
311
  8
_0-3_
  6
CONTINUOUS
 62
     2
 10
23370.6483073993695143
 20
17273.231814247348666
 30
0.0
 11
23110.6483073993695143
 21
17273.231814247348666
 31
0.0
  0
LINE
  5
312
  8
_0-3_
  6
CONTINUOUS
 62
     2
 10
23370.6483073993695143
 20
17793.231814247348666
 30
0.0
 11
23370.6483073993695143
 21
17273.231814247348666
 31
0.0
  0
LINE
  5
313
  8
_0-1_
  6
CONTINUOUS
 62
     4
 10
23110.6483073993695143
 20
20873.231814247348666
 30
0.0
 11
22630.6483073993695143
 21
17873.231814247348666
 31
0.0
  0
LINE
  5
314
  8
_0-1_
  6
CONTINUOUS
 62
     4
 10
17734.116681121809961
 20
15933.2894984521208244
 30
0.0
 11
19834.116681121809961
 21
15933.2894984521208244
 31
0.0
  0
LINE
  5
315
  8
_0-1_
  6
CONTINUOUS
 62
     4
 10
19834.116681121809961
 20
18033.2894984521299193
 30
0.0
 11
17734.116681121809961
 21
18033.2894984521299193
 31
0.0
  0
LINE
  5
316
  8
_0-1_
  6
CONTINUOUS
 62
     4
 10
17734.116681121809961
 20
15933.2894984521208244
 30
0.0
 11
19834.116681121809961
 21
18033.2894984521299193
 31
0.0
  0
LINE
  5
317
  8
_0-1_
  6
CONTINUOUS
 62
     4
 10
19834.116681121809961
 20
15933.2894984521208244
 30
0.0
 11
17734.116681121809961
 21
18033.2894984521299193
 31
0.0
  0
LINE
  5
318
  8
_0-1_
  6
CONTINUOUS
 62
     4
 10
17734.116681121809961
 20
17813.2894984521190054
 30
0.0
 11
16000.0
 21
17119.6428260034008417
 31
0.0
  0
LINE
  5
319
  8
_0-1_
  6
CONTINUOUS
 62
     4
 10
19834.116681121809961
 20
18033.2894984521299193
 30
0.0
 11
19834.116681121809961
 21
14700.0
 31
0.0
  0
LINE
  5
31A
  8
_0-1_
  6
CONTINUOUS
 62
     4
 10
17734.116681121809961
 20
18033.2894984521299193
 30
0.0
 11
17734.116681121809961
 21
14700.0
 31
0.0
  0
LINE
  5
31B
  8
_0-1_
  6
CONTINUOUS
 62
     4
 10
16000.0
 20
18088.9724912876117742
 30
0.0
 11
22630.6483073993695143
 21
20741.231814247348666
 31
0.0
  0
LINE
  5
31C
  8
_0-1_
  6
CONTINUOUS
 62
     4
 10
18284.116681121809961
 20
18033.2894984521299193
 30
0.0
 11
22630.6483073993695143
 21
19771.9021489631486475
 31
0.0
  0
LINE
  5
31D
  8
_0-1_
  6
CONTINUOUS
 62
     4
 10
20194.116681121809961
 20
16465.1070744787903095
 30
0.0
 11
20194.116681121809961
 21
14700.0
 31
0.0
  0
LINE
  5
31E
  8
_0-2_
  6
DASHED1
 62
     7
 10
19854.116681121809961
 20
18033.2894984521299193
 30
0.0
 11
19854.116681121809961
 21
14700.0
 31
0.0
  0
LINE
  5
31F
  8
_0-3_
  6
CONTINUOUS
 62
     2
 10
20194.116681121809961
 20
16448.1312529938804801
 30
0.0
 11
23110.6483073993695143
 21
17614.7439035048882943
 31
0.0
  0
LINE
  5
320
  8
_0-1_
  6
CONTINUOUS
 62
     4
 10
20194.116681121809961
 20
16706.6191637363299378
 30
0.0
 11
23110.6483073993695143
 21
17873.231814247348666
 31
0.0
  0
LINE
  5
321
  8
_0-1_
  6
CONTINUOUS
 62
     4
 10
20194.116681121809961
 20
16448.1312529938804801
 30
0.0
 11
20194.116681121809961
 21
16706.6191637363299378
 31
0.0
  0
LINE
  5
322
  8
_0-3_
  6
CONTINUOUS
 62
     2
 10
20514.116681121809961
 20
14700.0
 30
0.0
 11
20514.116681121809961
 21
16576.1312529938804801
 31
0.0
  0
LINE
  5
323
  8
_0-4_
  6
CONTINUOUS
 62
     3
 10
23770.6483073993695143
 20
19299.556065420689265
 30
0.0
 11
23470.6483073993695143
 21
19299.556065420689265
 31
0.0
  0
LINE
  5
324
  8
_0-1_
  6
CONTINUOUS
 62
     4
 10
23730.6483073993695143
 20
19319.556065420689265
 30
0.0
 11
23430.6483073993695143
 21
19319.556065420689265
 31
0.0
  0
LINE
  5
325
  8
_0-1_
  6
CONTINUOUS
 62
     4
 10
23730.6483073993695143
 20
21119.556065420689265
 30
0.0
 11
23730.6483073993695143
 21
19319.556065420689265
 31
0.0
  0
LINE
  5
326
  8
_0-1_
  6
CONTINUOUS
 62
     4
 10
23430.6483073993695143
 20
20873.231814247348666
 30
0.0
 11
23430.6483073993695143
 21
21119.556065420689265
 31
0.0
  0
LINE
  5
327
  8
_0-1_
  6
CONTINUOUS
 62
     4
 10
23730.6483073993695143
 20
21119.556065420689265
 30
0.0
 11
23430.6483073993695143
 21
21119.556065420689265
 31
0.0
  0
LINE
  5
328
  8
_0-1_
  6
CONTINUOUS
 62
     4
 10
23730.6483073993695143
 20
21119.556065420689265
 30
0.0
 11
23430.6483073993695143
 21
19319.556065420689265
 31
0.0
  0
LINE
  5
329
  8
_0-0_
  6
CENTER1
 62
     4
 10
18784.116681121809961
 20
14700.0
 30
0.0
 11
18784.116681121820875
 21
24400.0
 31
0.0
  0
LINE
  5
32A
  8
_0-4_
  6
CONTINUOUS
 62
     3
 10
16000.0
 20
24700.0
 30
0.0
 11
24000.0
 21
24700.0
 31
0.0
  0
LINE
  5
32B
  8
_0-4_
  6
CONTINUOUS
 62
     3
 10
16000.0
 20
24400.0
 30
0.0
 11
24000.0
 21
24400.0
 31
0.0
  0
LINE
  5
32C
  8
_0-4_
  6
CONTINUOUS
 62
     3
 10
18000.0
 20
24700.0
 30
0.0
 11
18000.0
 21
24400.0
 31
0.0
  0
LINE
  5
32D
  8
_0-4_
  6
CONTINUOUS
 62
     3
 10
20000.0
 20
24700.0
 30
0.0
 11
20000.0
 21
24400.0
 31
0.0
  0
TEXT
  5
32E
  8
_0-1_
 62
     4
 10
16257.3602414003507874
 20
24450.0
 30
0.0
 40
200.0
  1
ニューテッペン
  0
TEXT
  5
32F
  8
_0-1_
 62
     4
 10
18157.3602414003617014
 20
24450.0
 30
0.0
 40
200.0
  1
片流れコロニアル
  0
TEXT
  5
330
  8
_0-1_
 62
     4
 10
23233.8546117924015562
 20
24450.0
 30
0.0
 40
200.0
  1
S=1/5
  0
LINE
  5
331
  8
_0-4_
  6
CONTINUOUS
 62
     3
 10
23770.6483073993695143
 20
22641.1054277470102534
 30
0.0
 11
23770.6483073993695143
 21
19299.556065420689265
 31
0.0
  0
LINE
  5
332
  8
_0-4_
  6
CONTINUOUS
 62
     3
 10
16000.0
 20
24700.0
 30
0.0
 11
24000.0
 21
24700.0
 31
0.0
  0
LINE
  5
333
  8
_0-4_
  6
CONTINUOUS
 62
     3
 10
23470.6483073993695143
 20
18799.556065420689265
 30
0.0
 11
23450.6483073993695143
 21
18799.556065420689265
 31
0.0
  0
LINE
  5
334
  8
_0-4_
  6
CONTINUOUS
 62
     3
 10
23470.6483073993695143
 20
19299.556065420689265
 30
0.0
 11
23470.6483073993695143
 21
18799.556065420689265
 31
0.0
  0
LINE
  5
335
  8
_0-4_
  6
CONTINUOUS
 62
     3
 10
23450.6483073993695143
 20
18899.556065420689265
 30
0.0
 11
23450.6483073993695143
 21
18799.556065420689265
 31
0.0
  0
LINE
  5
336
  8
_0-4_
  6
CONTINUOUS
 62
     3
 10
25909.4863963404714013
 20
19384.3493181447011011
 30
0.0
 11
25723.79105816342053
 21
19310.0711828738785698
 31
0.0
  0
LINE
  5
337
  8
_0-4_
  6
CONTINUOUS
 62
     3
 10
25723.79105816342053
 20
19310.0711828738785698
 30
0.0
 11
25723.79105816342053
 21
19290.0711828738785698
 31
0.0
  0
LINE
  5
338
  8
_0-4_
  6
CONTINUOUS
 62
     3
 10
25723.79105816342053
 20
19290.0711828738785698
 30
0.0
 11
25916.3829480646018055
 21
19367.1079388343605387
 31
0.0
  0
LINE
  5
339
  8
_0-4_
  6
CONTINUOUS
 62
     3
 10
26058.042666882109188
 20
19012.9586417905884446
 30
0.0
 11
25916.3829480646018055
 21
19367.1079388343605387
 31
0.0
  0
LINE
  5
33A
  8
_1-A_
  6
CONTINUOUS
 62
     7
 10
3700.0
 20
20181.23181424734139
 30
0.0
 11
3700.0
 21
20381.23181424734139
 31
0.0
  0
LINE
  5
33B
  8
_1-A_
  6
CONTINUOUS
 62
     7
 10
4299.9999999999918145
 20
20181.23181424734139
 30
0.0
 11
4299.9999999999918145
 21
20381.23181424734139
 31
0.0
  0
CIRCLE
  5
33C
  8
_1-A_
  6
CONTINUOUS
 62
     5
 10
3700.0
 20
20181.23181424734139
 30
0.0
 40
20.0
  0
CIRCLE
  5
33D
  8
_1-A_
  6
CONTINUOUS
 62
     5
 10
3700.0
 20
20181.23181424734139
 30
0.0
 40
20.0
  0
CIRCLE
  5
33E
  8
_1-A_
  6
CONTINUOUS
 62
     5
 10
4299.9999999999918145
 20
20181.23181424734139
 30
0.0
 40
20.0
  0
CIRCLE
  5
33F
  8
_1-A_
  6
CONTINUOUS
 62
     5
 10
4299.9999999999918145
 20
20181.23181424734139
 30
0.0
 40
20.0
  0
LINE
  5
340
  8
_1-A_
  6
CONTINUOUS
 62
     7
 10
11700.0000000000090949
 20
20181.23181424734139
 30
0.0
 11
11700.0000000000090949
 21
20381.23181424734139
 31
0.0
  0
LINE
  5
341
  8
_1-A_
  6
CONTINUOUS
 62
     7
 10
12300.0
 20
20181.23181424734139
 30
0.0
 11
12300.0
 21
20381.23181424734139
 31
0.0
  0
CIRCLE
  5
342
  8
_1-A_
  6
CONTINUOUS
 62
     5
 10
11700.0000000000090949
 20
20181.23181424734139
 30
0.0
 40
20.0
  0
CIRCLE
  5
343
  8
_1-A_
  6
CONTINUOUS
 62
     5
 10
11700.0000000000090949
 20
20181.23181424734139
 30
0.0
 40
20.0
  0
CIRCLE
  5
344
  8
_1-A_
  6
CONTINUOUS
 62
     5
 10
12300.0
 20
20181.23181424734139
 30
0.0
 40
20.0
  0
CIRCLE
  5
345
  8
_1-A_
  6
CONTINUOUS
 62
     5
 10
12300.0
 20
20181.23181424734139
 30
0.0
 40
20.0
  0
LINE
  5
346
  8
_1-A_
  6
CONTINUOUS
 62
     7
 10
35699.9999999999781721
 20
20375.0977473042003112
 30
0.0
 11
35699.9999999999781721
 21
20575.0977473042003112
 31
0.0
  0
LINE
  5
347
  8
_1-A_
  6
CONTINUOUS
 62
     7
 10
36299.999999999992724
 20
20375.0977473042003112
 30
0.0
 11
36299.999999999992724
 21
20575.0977473042003112
 31
0.0
  0
CIRCLE
  5
348
  8
_1-A_
  6
CONTINUOUS
 62
     5
 10
35699.9999999999781721
 20
20375.0977473042003112
 30
0.0
 40
20.0
  0
CIRCLE
  5
349
  8
_1-A_
  6
CONTINUOUS
 62
     5
 10
35699.9999999999781721
 20
20375.0977473042003112
 30
0.0
 40
20.0
  0
CIRCLE
  5
34A
  8
_1-A_
  6
CONTINUOUS
 62
     5
 10
36299.999999999992724
 20
20375.0977473042003112
 30
0.0
 40
20.0
  0
CIRCLE
  5
34B
  8
_1-A_
  6
CONTINUOUS
 62
     5
 10
36299.999999999992724
 20
20375.0977473042003112
 30
0.0
 40
20.0
  0
LINE
  5
34C
  8
_1-A_
  6
CONTINUOUS
 62
     7
 10
43699.999999999992724
 20
20375.0977473042003112
 30
0.0
 11
43699.999999999992724
 21
20575.0977473042003112
 31
0.0
  0
LINE
  5
34D
  8
_1-A_
  6
CONTINUOUS
 62
     7
 10
44299.999999999992724
 20
20375.0977473042003112
 30
0.0
 11
44299.999999999992724
 21
20575.0977473042003112
 31
0.0
  0
CIRCLE
  5
34E
  8
_1-A_
  6
CONTINUOUS
 62
     5
 10
43699.999999999992724
 20
20375.0977473042003112
 30
0.0
 40
20.0
  0
CIRCLE
  5
34F
  8
_1-A_
  6
CONTINUOUS
 62
     5
 10
43699.999999999992724
 20
20375.0977473042003112
 30
0.0
 40
20.0
  0
CIRCLE
  5
350
  8
_1-A_
  6
CONTINUOUS
 62
     5
 10
44299.999999999992724
 20
20375.0977473042003112
 30
0.0
 40
20.0
  0
CIRCLE
  5
351
  8
_1-A_
  6
CONTINUOUS
 62
     5
 10
44299.999999999992724
 20
20375.0977473042003112
 30
0.0
 40
20.0
  0
LINE
  5
352
  8
_1-A_
  6
CONTINUOUS
 62
     7
 10
51700.0
 20
20283.591594466688548
 30
0.0
 11
51700.0
 21
20483.591594466688548
 31
0.0
  0
LINE
  5
353
  8
_1-A_
  6
CONTINUOUS
 62
     7
 10
52299.9999999999708962
 20
20283.591594466688548
 30
0.0
 11
52299.9999999999708962
 21
20483.591594466688548
 31
0.0
  0
CIRCLE
  5
354
  8
_1-A_
  6
CONTINUOUS
 62
     5
 10
51700.0
 20
20283.591594466688548
 30
0.0
 40
20.0
  0
CIRCLE
  5
355
  8
_1-A_
  6
CONTINUOUS
 62
     5
 10
51700.0
 20
20283.591594466688548
 30
0.0
 40
20.0
  0
CIRCLE
  5
356
  8
_1-A_
  6
CONTINUOUS
 62
     5
 10
52299.9999999999708962
 20
20283.591594466688548
 30
0.0
 40
20.0
  0
CIRCLE
  5
357
  8
_1-A_
  6
CONTINUOUS
 62
     5
 10
52299.9999999999708962
 20
20283.591594466688548
 30
0.0
 40
20.0
  0
LINE
  5
358
  8
_0-1_
  6
CONTINUOUS
 62
     4
 10
21955.8192068973294226
 20
20729.7880847890010045
 30
0.0
 11
22044.952969222318643
 21
20506.9536789765406866
 31
0.0
  0
LINE
  5
359
  8
_0-1_
  6
CONTINUOUS
 62
     4
 10
21955.8192068973403366
 20
20729.7880847890010045
 30
0.0
 11
22044.952969222318643
 21
20506.9536789765188587
 31
0.0
  0
LINE
  5
35A
  8
_0-3_
  6
CONTINUOUS
 62
     2
 10
21948.3913933702388022
 20
20748.3576186067002709
 30
0.0
 11
21874.1132580994199088
 21
20934.0529567837584182
 31
0.0
  0
LINE
  5
35B
  8
_0-4_
  6
CONTINUOUS
 62
     3
 10
21980.990106395289331
 20
21041.4256737877185515
 30
0.0
 11
20448.1107026250901981
 21
20428.2739122796410811
 31
0.0
  0
LINE
  5
35C
  8
_0-4_
  6
CONTINUOUS
 62
     3
 10
20455.5385161521699047
 20
20409.7043784619309008
 30
0.0
 11
20548.3861852407098922
 21
20446.8434460973403475
 31
0.0
  0
LINE
  5
35D
  8
_0-4_
  6
CONTINUOUS
 62
     3
 10
20448.1107026250901981
 20
20428.2739122796410811
 30
0.0
 11
20455.5385161521699047
 21
20409.7043784619309008
 31
0.0
  0
LINE
  5
35E
  8
_0-1_
  6
CONTINUOUS
 62
     4
 10
21955.8192068973294226
 20
20729.7880847889791767
 30
0.0
 11
16000.0
 21
18347.4604020300612319
 31
0.0
  0
LINE
  5
35F
  8
_0-2_
  6
DASHED1
 62
     7
 10
21948.3913933702497161
 20
20748.357618606678443
 30
0.0
 11
16000.0
 21
18369.001061258608388
 31
0.0
  0
LINE
  5
360
  8
_0-1_
  6
CONTINUOUS
 62
     4
 10
21955.8192068973294226
 20
20729.7880847890010045
 30
0.0
 11
16000.0
 21
18347.460402030050318
 31
0.0
  0
LINE
  5
361
  8
_0-1_
  6
CONTINUOUS
 62
     4
 10
22044.952969222311367
 20
20506.9536789765297726
 30
0.0
 11
16000.0
 21
18088.9724912876117742
 31
0.0
  0
LINE
  5
362
  8
_0-2_
  6
DASHED1
 62
     7
 10
21948.3913933702388022
 20
20748.3576186067002709
 30
0.0
 11
16000.0
 21
18369.0010612586011121
 31
0.0
  0
LINE
  5
363
  8
_0-3_
  6
CONTINUOUS
 62
     2
 10
21874.1132580994199088
 20
20934.0529567837584182
 30
0.0
 11
16000.0
 21
18584.4076535440108273
 31
0.0
  0
LINE
  5
364
  8
_0-3_
  6
DASHED3
 62
     4
 10
21911.2523257348402694
 20
20841.2052876952293445
 30
0.0
 11
16000.0
 21
18476.7043574013114267
 31
0.0
  0
LINE
  5
365
  8
_0-5_
  6
CONTINUOUS
 62
     7
 10
20548.8153871227004856
 20
20490.7458904948216514
 30
0.0
 11
20287.4486222205887316
 21
20903.1750060188787756
 31
0.0
  0
LINE
  5
366
  8
_0-5_
  6
CONTINUOUS
 62
     7
 10
21809.6890390165317513
 20
20995.0953512523483369
 30
0.0
 11
20548.8153871227004856
 21
20490.7458904948216514
 31
0.0
  0
LINE
  5
367
  8
_0-5_
  6
CONTINUOUS
 62
     7
 10
20651.2384764516500582
 20
20984.0689700256916694
 30
0.0
 11
20722.6146897500184423
 21
20624.8875892313517397
 31
0.0
  0
LINE
  5
368
  8
_0-5_
  6
CONTINUOUS
 62
     7
 10
21395.2977815501217265
 20
21281.6926920650803368
 30
0.0
 11
21591.3228552267210034
 21
20972.3708554220393125
 31
0.0
  0
LINE
  5
369
  8
_0-5_
  6
CONTINUOUS
 62
     7
 10
20857.7086246917315293
 20
21066.6570293217300787
 30
0.0
 11
21053.7336983683198923
 21
20757.3351926786817785
 31
0.0
  0
LINE
  5
36A
  8
_0-5_
  6
CONTINUOUS
 62
     7
 10
21188.8276333100402553
 20
21199.1046327690492035
 30
0.0
 11
21260.2038466084086394
 21
20839.9232519747201877
 31
0.0
  0
LINE
  5
36B
  8
_0-5_
  6
CONTINUOUS
 62
     7
 10
20516.1445415099296952
 20
20542.2995299353096925
 30
0.0
 11
21797.7930034667988366
 21
21054.9589147180704458
 31
0.0
  0
LINE
  5
36C
  8
_0-5_
  6
CONTINUOUS
 62
     7
 10
20359.3244825686706463
 20
20789.7569992497483327
 30
0.0
 11
20665.5137191113208246
 21
20912.2326938668484217
 31
0.0
  0
LINE
  5
36D
  8
_0-5_
  6
CONTINUOUS
 62
     7
 10
20398.5294973039817705
 20
20727.8926319211495866
 30
0.0
 11
20679.788961770998867
 21
20840.3964177079687943
 31
0.0
  0
LINE
  5
36E
  8
_0-5_
  6
CONTINUOUS
 62
     7
 10
20437.7345120393001707
 20
20666.0282645925399265
 30
0.0
 11
20694.0642044306805474
 21
20768.5601415490891668
 31
0.0
  0
LINE
  5
36F
  8
_0-5_
  6
CONTINUOUS
 62
     7
 10
20476.9395267746185709
 20
20604.1638972639302665
 30
0.0
 11
20708.3394470903513138
 21
20696.7238653902204533
 31
0.0
  0
LINE
  5
370
  8
_0-5_
  6
CONTINUOUS
 62
     7
 10
20896.9136394270608434
 20
21004.7926619931204186
 30
0.0
 11
21203.1028759697110218
 21
21127.26835661018049
 31
0.0
  0
LINE
  5
371
  8
_0-5_
  6
CONTINUOUS
 62
     7
 10
21434.5027962854510406
 20
21219.8283247364815907
 30
0.0
 11
21740.6920328281012189
 21
21342.3040193535598519
 31
0.0
  0
LINE
  5
372
  8
_0-5_
  6
CONTINUOUS
 62
     7
 10
20936.1186541623683297
 20
20942.9282946644998447
 30
0.0
 11
21217.3781186293890642
 21
21055.4320804513190524
 31
0.0
  0
LINE
  5
373
  8
_0-5_
  6
CONTINUOUS
 62
     7
 10
21473.7078110207585269
 20
21157.9639574078610167
 30
0.0
 11
21754.9672754877683474
 21
21270.4677431946583965
 31
0.0
  0
LINE
  5
374
  8
_0-5_
  6
CONTINUOUS
 62
     7
 10
20975.3236688976903679
 20
20881.0639273359192885
 30
0.0
 11
21231.6533612890707445
 21
20983.5958042924503388
 31
0.0
  0
LINE
  5
375
  8
_0-5_
  6
CONTINUOUS
 62
     7
 10
21512.912825756080565
 20
21096.0995900792513567
 30
0.0
 11
21769.2425181474391138
 21
21198.6314670358005969
 31
0.0
  0
LINE
  5
376
  8
_0-5_
  6
CONTINUOUS
 62
     7
 10
21014.5286836330014921
 20
20819.1995600072914385
 30
0.0
 11
21245.928603948730597
 21
20911.7595281335707114
 31
0.0
  0
LINE
  5
377
  8
_0-5_
  6
CONTINUOUS
 62
     7
 10
21552.1178404913916893
 20
21034.2352227506489726
 30
0.0
 11
21783.5177608071317081
 21
21126.7951908769391594
 31
0.0
  0
LINE
  5
378
  8
_0-5_
  6
CONTINUOUS
 62
     7
 10
21809.6890390165317513
 20
20995.0953512523483369
 30
0.0
 11
21726.4167901684304525
 21
21414.1402955124103755
 31
0.0
  0
LINE
  5
379
  8
_0-4_
  6
CONTINUOUS
 62
     3
 10
20558.563815959081694
 20
21033.1617427428282099
 30
0.0
 11
20447.146613052849716
 21
21311.7047500084008789
 31
0.0
  0
LINE
  5
37A
  8
_0-4_
  6
CONTINUOUS
 62
     3
 10
20447.146613052849716
 20
21311.7047500084008789
 30
0.0
 11
23770.6483073993695143
 21
22641.1054277470102534
 31
0.0
  0
LINE
  5
37B
  8
_0-1_
  6
CONTINUOUS
 62
     4
 10
20584.5611633038715809
 20
21022.0200224521904602
 30
0.0
 11
20473.143960397628689
 21
21300.5630297177704051
 31
0.0
  0
LINE
  5
37C
  8
_0-4_
  6
CONTINUOUS
 62
     3
 10
21980.990106395289331
 20
21041.4256737877185515
 30
0.0
 11
21958.7066658140392974
 21
21097.1342752408309025
 31
0.0
  0
LINE
  5
37D
  8
_0-4_
  6
CONTINUOUS
 62
     3
 10
20094.3254705164508778
 20
20847.4664045657700626
 30
0.0
 11
20101.7532840435305843
 21
20828.8968707480707963
 31
0.0
  0
LINE
  5
37E
  8
_0-4_
  6
CONTINUOUS
 62
     3
 10
20094.3254705164508778
 20
20847.4664045657700626
 30
0.0
 11
20558.563815959081694
 21
21033.1617427428282099
 31
0.0
  0
LINE
  5
37F
  8
_0-4_
  6
CONTINUOUS
 62
     3
 10
20101.7532840435305843
 20
20828.8968707480707963
 30
0.0
 11
20205.5695322562496585
 21
20870.4233700331496948
 31
0.0
  0
LINE
  5
380
  8
_0-5_
  6
CONTINUOUS
 62
     7
 10
22330.0973421681592299
 20
21720.2344939979084302
 30
0.0
 11
22352.3807827493983496
 21
21664.5258925447997171
 31
0.0
  0
LINE
  5
381
  8
_0-1_
  6
CONTINUOUS
 62
     4
 10
22255.8192068973294226
 20
21690.5232398895786901
 30
0.0
 11
22144.4020039910901687
 21
21969.066247155158635
 31
0.0
  0
LINE
  5
382
  8
_0-5_
  6
CONTINUOUS
 62
     7
 10
20320.1194678333486081
 20
20851.6213665783798206
 30
0.0
 11
22352.3807827493983496
 21
21664.5258925447997171
 31
0.0
  0
LINE
  5
383
  8
_0-5_
  6
CONTINUOUS
 62
     7
 10
20287.4486222205887316
 20
20903.1750060188787756
 30
0.0
 11
22330.0973421681592299
 21
21720.2344939979084302
 31
0.0
  0
LINE
  5
384
  8
_0-1_
  6
CONTINUOUS
 62
     4
 10
20473.143960397628689
 20
21300.5630297177704051
 30
0.0
 11
22144.4020039910901687
 21
21969.066247155158635
 31
0.0
  0
LINE
  5
385
  8
_0-1_
  6
CONTINUOUS
 62
     4
 10
22144.4020039910901687
 20
21969.066247155158635
 30
0.0
 11
20584.5611633038715809
 21
21022.0200224521904602
 31
0.0
  0
LINE
  5
386
  8
_1-A_
  6
CONTINUOUS
 62
     7
 10
22630.6483073993695143
 20
20181.231814247348666
 30
0.0
 11
22630.6483073993695143
 21
20381.231814247348666
 31
0.0
  0
CIRCLE
  5
387
  8
_1-A_
  6
CONTINUOUS
 62
     5
 10
22630.6483073993695143
 20
20181.231814247348666
 30
0.0
 40
20.0
  0
CIRCLE
  5
388
  8
_1-A_
  6
CONTINUOUS
 62
     5
 10
22630.6483073993695143
 20
20181.231814247348666
 30
0.0
 40
20.0
  0
LINE
  5
389
  8
_1-A_
  6
CONTINUOUS
 62
     7
 10
22030.6483073993586004
 20
20181.231814247348666
 30
0.0
 11
22030.6483073993586004
 21
20381.231814247348666
 31
0.0
  0
CIRCLE
  5
38A
  8
_1-A_
  6
CONTINUOUS
 62
     5
 10
22030.6483073993586004
 20
20181.231814247348666
 30
0.0
 40
20.0
  0
CIRCLE
  5
38B
  8
_1-A_
  6
CONTINUOUS
 62
     5
 10
22030.6483073993586004
 20
20181.231814247348666
 30
0.0
 40
20.0
  0
TEXT
  5
38C
  8
_1-A_
 62
     5
 10
22050.6483073993586004
 20
20181.231814247348666
 30
0.0
 40
200.0
  1
30程度
  0
LINE
  5
38D
  8
_1-5_
  6
CONTINUOUS
 62
     7
 10
5184.0992658474697237
 20
21107.1004496203095187
 30
0.0
 11
5184.0992658474697237
 21
22646.066001225670334
 31
0.0
  0
LINE
  5
38E
  8
_1-5_
  6
CONTINUOUS
 62
     7
 10
5184.0992658474697237
 20
22646.066001225670334
 30
0.0
 11
5384.0992658474706332
 21
22646.066001225670334
 31
0.0
  0
SOLID
  5
38F
  8
_1-5_
  6
CONTINUOUS
 62
     7
 10
5184.0992658474697237
 20
21107.1004496203095187
 30
0.0
 11
5161.9297995831775552
 21
21207.1004496203095187
 31
0.0
 12
5184.0992658474697237
 22
21207.1004496203095187
 32
0.0
 13
5184.0992658474697237
 23
21207.1004496203095187
 33
0.0
  0
LINE
  5
390
  8
_1-5_
  6
CONTINUOUS
 62
     7
 10
5184.0992658474697237
 20
21107.1004496203095187
 30
0.0
 11
5161.9297995831775552
 21
21207.1004496203095187
 31
0.0
  0
LINE
  5
391
  8
_1-5_
  6
CONTINUOUS
 62
     7
 10
5161.9297995831775552
 20
21207.1004496203095187
 30
0.0
 11
5184.0992658474697237
 21
21207.1004496203095187
 31
0.0
  0
LINE
  5
392
  8
_1-5_
  6
CONTINUOUS
 62
     7
 10
5184.0992658474697237
 20
21207.1004496203095187
 30
0.0
 11
5184.0992658474697237
 21
21107.1004496203095187
 31
0.0
  0
TEXT
  5
393
  8
_1-5_
 62
     5
 10
5384.0992658474706332
 20
22546.066001225670334
 30
0.0
 40
200.0
  1
ニューテッペン
  0
LINE
  5
394
  8
_1-5_
  6
CONTINUOUS
 62
     7
 10
11558.6012908644297568
 20
21084.7294705351305311
 30
0.0
 11
11558.6012908644297568
 21
22634.5465537181516993
 31
0.0
  0
LINE
  5
395
  8
_1-5_
  6
CONTINUOUS
 62
     7
 10
11558.6012908644297568
 20
22634.5465537181516993
 30
0.0
 11
11758.6012908644297568
 21
22634.5465537181516993
 31
0.0
  0
SOLID
  5
396
  8
_1-5_
  6
CONTINUOUS
 62
     7
 10
11558.6012908644297568
 20
21084.7294705351305311
 30
0.0
 11
11536.4318246001403168
 21
21184.7294705351305311
 31
0.0
 12
11558.6012908644297568
 22
21184.7294705351305311
 32
0.0
 13
11558.6012908644297568
 23
21184.7294705351305311
 33
0.0
  0
LINE
  5
397
  8
_1-5_
  6
CONTINUOUS
 62
     7
 10
11558.6012908644297568
 20
21084.7294705351305311
 30
0.0
 11
11536.4318246001403168
 21
21184.7294705351305311
 31
0.0
  0
LINE
  5
398
  8
_1-5_
  6
CONTINUOUS
 62
     7
 10
11536.4318246001403168
 20
21184.7294705351305311
 30
0.0
 11
11558.6012908644297568
 21
21184.7294705351305311
 31
0.0
  0
LINE
  5
399
  8
_1-5_
  6
CONTINUOUS
 62
     7
 10
11558.6012908644297568
 20
21184.7294705351305311
 30
0.0
 11
11558.6012908644297568
 21
21084.7294705351305311
 31
0.0
  0
TEXT
  5
39A
  8
_1-5_
 62
     5
 10
11758.6012908644297568
 20
22534.5465537181516993
 30
0.0
 40
200.0
  1
水返し板金
  0
LINE
  5
39B
  8
_1-5_
  6
CONTINUOUS
 62
     7
 10
13184.0992658474697237
 20
21107.1004496203204326
 30
0.0
 11
13184.0992658474697237
 21
22646.0660012256885238
 31
0.0
  0
LINE
  5
39C
  8
_1-5_
  6
CONTINUOUS
 62
     7
 10
13184.0992658474697237
 20
22646.0660012256885238
 30
0.0
 11
13384.0992658474697237
 21
22646.0660012256885238
 31
0.0
  0
SOLID
  5
39D
  8
_1-5_
  6
CONTINUOUS
 62
     7
 10
13184.0992658474697237
 20
21107.1004496203204326
 30
0.0
 11
13161.9297995831693697
 21
21207.1004496203313465
 31
0.0
 12
13184.0992658474697237
 22
21207.1004496203313465
 32
0.0
 13
13184.0992658474697237
 23
21207.1004496203313465
 33
0.0
  0
LINE
  5
39E
  8
_1-5_
  6
CONTINUOUS
 62
     7
 10
13184.0992658474697237
 20
21107.1004496203204326
 30
0.0
 11
13161.9297995831693697
 21
21207.1004496203313465
 31
0.0
  0
LINE
  5
39F
  8
_1-5_
  6
CONTINUOUS
 62
     7
 10
13161.9297995831693697
 20
21207.1004496203313465
 30
0.0
 11
13184.0992658474697237
 21
21207.1004496203313465
 31
0.0
  0
LINE
  5
3A0
  8
_1-5_
  6
CONTINUOUS
 62
     7
 10
13184.0992658474697237
 20
21207.1004496203313465
 30
0.0
 11
13184.0992658474697237
 21
21107.1004496203204326
 31
0.0
  0
TEXT
  5
3A1
  8
_1-5_
 62
     5
 10
13384.0992658474697237
 20
22546.0660012256812479
 30
0.0
 40
200.0
  1
ニューテッペン
  0
LINE
  5
3A2
  8
_1-5_
  6
CONTINUOUS
 62
     7
 10
13870.2978888126999664
 20
20472.2378279003205535
 30
0.0
 11
14369.4471027275994857
 21
21336.7896269589909934
 31
0.0
  0
LINE
  5
3A3
  8
_1-5_
  6
CONTINUOUS
 62
     7
 10
14369.4471027275994857
 20
21336.7896269589909934
 30
0.0
 11
14569.4471027275994857
 21
21336.7896269589909934
 31
0.0
  0
SOLID
  5
3A4
  8
_1-5_
  6
CONTINUOUS
 62
     7
 10
13870.2978888126999664
 20
20472.2378279003205535
 30
0.0
 11
13901.0985678394808929
 21
20569.925101410910429
 31
0.0
 12
13920.2978888126999664
 22
20558.8403682787684374
 32
0.0
 13
13920.2978888126999664
 23
20558.8403682787684374
 33
0.0
  0
LINE
  5
3A5
  8
_1-5_
  6
CONTINUOUS
 62
     7
 10
13870.2978888126999664
 20
20472.2378279003205535
 30
0.0
 11
13901.0985678394808929
 21
20569.925101410910429
 31
0.0
  0
LINE
  5
3A6
  8
_1-5_
  6
CONTINUOUS
 62
     7
 10
13901.0985678394808929
 20
20569.925101410910429
 30
0.0
 11
13920.2978888126999664
 21
20558.8403682787684374
 31
0.0
  0
LINE
  5
3A7
  8
_1-5_
  6
CONTINUOUS
 62
     7
 10
13920.2978888126999664
 20
20558.8403682787684374
 30
0.0
 11
13870.2978888126999664
 21
20472.2378279003205535
 31
0.0
  0
TEXT
  5
3A8
  8
_1-5_
 62
     5
 10
14569.4471027275994857
 20
21236.7896269589909934
 30
0.0
 40
200.0
  1
コーキング
  0
LINE
  5
3A9
  8
_1-5_
  6
CONTINUOUS
 62
     7
 10
20455.5385161521699047
 20
20409.7043784619309008
 30
0.0
 11
19915.2139316174216219
 21
21345.5740114546715631
 31
0.0
  0
LINE
  5
3AA
  8
_1-5_
  6
CONTINUOUS
 62
     7
 10
19915.2139316174216219
 20
21345.5740114546715631
 30
0.0
 11
19715.2139316174216219
 21
21345.5740114546715631
 31
0.0
  0
SOLID
  5
3AB
  8
_1-5_
  6
CONTINUOUS
 62
     7
 10
20455.5385161521699047
 20
20409.7043784619309008
 30
0.0
 11
20424.7378371253907972
 21
20507.3916519725207763
 31
0.0
 12
20405.5385161521699047
 22
20496.3069188403715088
 32
0.0
 13
20405.5385161521699047
 23
20496.3069188403715088
 33
0.0
  0
LINE
  5
3AC
  8
_1-5_
  6
CONTINUOUS
 62
     7
 10
20455.5385161521699047
 20
20409.7043784619309008
 30
0.0
 11
20424.7378371253907972
 21
20507.3916519725207763
 31
0.0
  0
LINE
  5
3AD
  8
_1-5_
  6
CONTINUOUS
 62
     7
 10
20424.7378371253907972
 20
20507.3916519725207763
 30
0.0
 11
20405.5385161521699047
 21
20496.3069188403715088
 31
0.0
  0
LINE
  5
3AE
  8
_1-5_
  6
CONTINUOUS
 62
     7
 10
20405.5385161521699047
 20
20496.3069188403715088
 30
0.0
 11
20455.5385161521699047
 21
20409.7043784619309008
 31
0.0
  0
TEXT
  5
3AF
  8
_1-5_
 62
     5
 10
18795.2139316174216219
 20
21245.5740114546715631
 30
0.0
 40
200.0
  1
コーキング
  0
LINE
  5
3B0
  8
_1-5_
  6
CONTINUOUS
 62
     7
 10
21077.169908342508279
 20
21073.39760525498059
 30
0.0
 11
21077.169908342508279
 21
22409.5363265989217325
 31
0.0
  0
LINE
  5
3B1
  8
_1-5_
  6
CONTINUOUS
 62
     7
 10
21077.169908342508279
 20
22409.5363265989217325
 30
0.0
 11
20877.169908342508279
 21
22409.5363265989217325
 31
0.0
  0
SOLID
  5
3B2
  8
_1-5_
  6
CONTINUOUS
 62
     7
 10
21077.169908342508279
 20
21073.39760525498059
 30
0.0
 11
21055.000442078220658
 21
21173.39760525498059
 31
0.0
 12
21077.169908342508279
 22
21173.39760525498059
 32
0.0
 13
21077.169908342508279
 23
21173.39760525498059
 33
0.0
  0
LINE
  5
3B3
  8
_1-5_
  6
CONTINUOUS
 62
     7
 10
21077.169908342508279
 20
21073.39760525498059
 30
0.0
 11
21055.000442078220658
 21
21173.39760525498059
 31
0.0
  0
LINE
  5
3B4
  8
_1-5_
  6
CONTINUOUS
 62
     7
 10
21055.000442078220658
 20
21173.39760525498059
 30
0.0
 11
21077.169908342508279
 21
21173.39760525498059
 31
0.0
  0
LINE
  5
3B5
  8
_1-5_
  6
CONTINUOUS
 62
     7
 10
21077.169908342508279
 20
21173.39760525498059
 30
0.0
 11
21077.169908342508279
 21
21073.39760525498059
 31
0.0
  0
TEXT
  5
3B6
  8
_1-5_
 62
     5
 10
19597.169908342508279
 20
22309.5363265989217325
 30
0.0
 40
200.0
  1
ニューテッペン
  0
LINE
  5
3B7
  8
_1-5_
  6
CONTINUOUS
 62
     7
 10
21905.8044473222798842
 20
21011.3514101585205935
 30
0.0
 11
21905.8044473222798842
 21
22783.3113587904990709
 31
0.0
  0
LINE
  5
3B8
  8
_1-5_
  6
CONTINUOUS
 62
     7
 10
21905.8044473222798842
 20
22783.3113587904990709
 30
0.0
 11
21705.8044473222798842
 21
22783.3113587904990709
 31
0.0
  0
SOLID
  5
3B9
  8
_1-5_
  6
CONTINUOUS
 62
     7
 10
21905.8044473222798842
 20
21011.3514101585205935
 30
0.0
 11
21883.6349810579886253
 21
21111.3514101585205935
 31
0.0
 12
21905.8044473222798842
 22
21111.3514101585205935
 32
0.0
 13
21905.8044473222798842
 23
21111.3514101585205935
 33
0.0
  0
LINE
  5
3BA
  8
_1-5_
  6
CONTINUOUS
 62
     7
 10
21905.8044473222798842
 20
21011.3514101585205935
 30
0.0
 11
21883.6349810579886253
 21
21111.3514101585205935
 31
0.0
  0
LINE
  5
3BB
  8
_1-5_
  6
CONTINUOUS
 62
     7
 10
21883.6349810579886253
 20
21111.3514101585205935
 30
0.0
 11
21905.8044473222798842
 21
21111.3514101585205935
 31
0.0
  0
LINE
  5
3BC
  8
_1-5_
  6
CONTINUOUS
 62
     7
 10
21905.8044473222798842
 20
21111.3514101585205935
 30
0.0
 11
21905.8044473222798842
 21
21011.3514101585205935
 31
0.0
  0
TEXT
  5
3BD
  8
_1-5_
 62
     5
 10
20785.8044473222798842
 20
22683.3113587904990709
 30
0.0
 40
200.0
  1
水返し板金
  0
LINE
  5
3BE
  8
_1-5_
  6
CONTINUOUS
 62
     7
 10
27099.1996857173689932
 20
19295.8693621077582065
 30
0.0
 11
27099.1996857173689932
 21
21734.4416795987308433
 31
0.0
  0
LINE
  5
3BF
  8
_1-5_
  6
CONTINUOUS
 62
     7
 10
27099.1996857173689932
 20
21734.4416795987308433
 30
0.0
 11
26899.1996857173689932
 21
21734.4416795987308433
 31
0.0
  0
SOLID
  5
3C0
  8
_1-5_
  6
CONTINUOUS
 62
     7
 10
27099.1996857173689932
 20
19295.8693621077582065
 30
0.0
 11
27077.0302194530813722
 21
19395.8693621077582065
 31
0.0
 12
27099.1996857173689932
 22
19395.8693621077582065
 32
0.0
 13
27099.1996857173689932
 23
19395.8693621077582065
 33
0.0
  0
LINE
  5
3C1
  8
_1-5_
  6
CONTINUOUS
 62
     7
 10
27099.1996857173689932
 20
19295.8693621077582065
 30
0.0
 11
27077.0302194530813722
 21
19395.8693621077582065
 31
0.0
  0
LINE
  5
3C2
  8
_1-5_
  6
CONTINUOUS
 62
     7
 10
27077.0302194530813722
 20
19395.8693621077582065
 30
0.0
 11
27099.1996857173689932
 21
19395.8693621077582065
 31
0.0
  0
LINE
  5
3C3
  8
_1-5_
  6
CONTINUOUS
 62
     7
 10
27099.1996857173689932
 20
19395.8693621077582065
 30
0.0
 11
27099.1996857173689932
 21
19295.8693621077582065
 31
0.0
  0
TEXT
  5
3C4
  8
_1-5_
 62
     5
 10
25619.1996857173689932
 20
21634.4416795987308433
 30
0.0
 40
200.0
  1
ニューテッペン
  0
LINE
  5
3C5
  8
_1-5_
  6
CONTINUOUS
 62
     7
 10
26312.246653313668503
 20
18360.0677181768005539
 30
0.0
 11
26312.246653313668503
 21
21196.8149712764607102
 31
0.0
  0
LINE
  5
3C6
  8
_1-5_
  6
CONTINUOUS
 62
     7
 10
26312.246653313668503
 20
21196.8149712764607102
 30
0.0
 11
26112.246653313668503
 21
21196.8149712764607102
 31
0.0
  0
SOLID
  5
3C7
  8
_1-5_
  6
CONTINUOUS
 62
     7
 10
26312.246653313668503
 20
18360.0677181768005539
 30
0.0
 11
26290.0771870493917959
 21
18460.0677181768005539
 31
0.0
 12
26312.246653313668503
 22
18460.0677181768005539
 32
0.0
 13
26312.246653313668503
 23
18460.0677181768005539
 33
0.0
  0
LINE
  5
3C8
  8
_1-5_
  6
CONTINUOUS
 62
     7
 10
26312.246653313668503
 20
18360.0677181768005539
 30
0.0
 11
26290.0771870493917959
 21
18460.0677181768005539
 31
0.0
  0
LINE
  5
3C9
  8
_1-5_
  6
CONTINUOUS
 62
     7
 10
26290.0771870493917959
 20
18460.0677181768005539
 30
0.0
 11
26312.246653313668503
 21
18460.0677181768005539
 31
0.0
  0
LINE
  5
3CA
  8
_1-5_
  6
CONTINUOUS
 62
     7
 10
26312.246653313668503
 20
18460.0677181768005539
 30
0.0
 11
26312.246653313668503
 21
18360.0677181768005539
 31
0.0
  0
TEXT
  5
3CB
  8
_1-5_
 62
     5
 10
25192.2466533136903308
 20
21096.8149712764716242
 30
0.0
 40
200.0
  1
水返し板金
  0
LINE
  5
3CC
  8
_1-5_
  6
CONTINUOUS
 62
     7
 10
37230.5716850583994528
 20
22121.8136797181796283
 30
0.0
 11
37230.5716850583994528
 21
23307.1302570367988665
 31
0.0
  0
LINE
  5
3CD
  8
_1-5_
  6
CONTINUOUS
 62
     7
 10
37230.5716850583994528
 20
23307.1302570367988665
 30
0.0
 11
37430.5716850583994528
 21
23307.1302570367988665
 31
0.0
  0
SOLID
  5
3CE
  8
_1-5_
  6
CONTINUOUS
 62
     7
 10
37230.5716850583994528
 20
22121.8136797181796283
 30
0.0
 11
37208.402218794086366
 21
22221.8136797181796283
 31
0.0
 12
37230.5716850583994528
 22
22221.8136797181796283
 32
0.0
 13
37230.5716850583994528
 23
22221.8136797181796283
 33
0.0
  0
LINE
  5
3CF
  8
_1-5_
  6
CONTINUOUS
 62
     7
 10
37230.5716850583994528
 20
22121.8136797181796283
 30
0.0
 11
37208.402218794086366
 21
22221.8136797181796283
 31
0.0
  0
LINE
  5
3D0
  8
_1-5_
  6
CONTINUOUS
 62
     7
 10
37208.402218794086366
 20
22221.8136797181796283
 30
0.0
 11
37230.5716850583994528
 21
22221.8136797181796283
 31
0.0
  0
LINE
  5
3D1
  8
_1-5_
  6
CONTINUOUS
 62
     7
 10
37230.5716850583994528
 20
22221.8136797181796283
 30
0.0
 11
37230.5716850583994528
 21
22121.8136797181796283
 31
0.0
  0
TEXT
  5
3D2
  8
_1-5_
 62
     5
 10
37430.5716850583994528
 20
23207.1302570367988665
 30
0.0
 40
200.0
  1
ニューテッペン
  0
LINE
  5
3D3
  8
_1-5_
  6
CONTINUOUS
 62
     7
 10
45236.4128897013724782
 20
21098.4499504282794078
 30
0.0
 11
45236.4128897013724782
 21
22283.76652774689137
 31
0.0
  0
LINE
  5
3D4
  8
_1-5_
  6
CONTINUOUS
 62
     7
 10
45236.4128897013724782
 20
22283.76652774689137
 30
0.0
 11
45436.4128897013579262
 21
22283.76652774689137
 31
0.0
  0
SOLID
  5
3D5
  8
_1-5_
  6
CONTINUOUS
 62
     7
 10
45236.4128897013724782
 20
21098.4499504282794078
 30
0.0
 11
45214.2434234370884951
 21
21198.4499504282794078
 31
0.0
 12
45236.4128897013724782
 22
21198.4499504282794078
 32
0.0
 13
45236.4128897013724782
 23
21198.4499504282794078
 33
0.0
  0
LINE
  5
3D6
  8
_1-5_
  6
CONTINUOUS
 62
     7
 10
45236.4128897013724782
 20
21098.4499504282794078
 30
0.0
 11
45214.2434234370884951
 21
21198.4499504282794078
 31
0.0
  0
LINE
  5
3D7
  8
_1-5_
  6
CONTINUOUS
 62
     7
 10
45214.2434234370884951
 20
21198.4499504282794078
 30
0.0
 11
45236.4128897013724782
 21
21198.4499504282794078
 31
0.0
  0
LINE
  5
3D8
  8
_1-5_
  6
CONTINUOUS
 62
     7
 10
45236.4128897013724782
 20
21198.4499504282794078
 30
0.0
 11
45236.4128897013724782
 21
21098.4499504282794078
 31
0.0
  0
TEXT
  5
3D9
  8
_1-5_
 62
     5
 10
45436.4128897013579262
 20
22183.76652774689137
 30
0.0
 40
200.0
  1
ニューテッペン
  0
LINE
  5
3DA
  8
_1-5_
  6
CONTINUOUS
 62
     7
 10
53236.2061084373635822
 20
21670.9090713200712344
 30
0.0
 11
53236.2061084373635822
 21
22856.2256486386904726
 31
0.0
  0
LINE
  5
3DB
  8
_1-5_
  6
CONTINUOUS
 62
     7
 10
53236.2061084373635822
 20
22856.2256486386904726
 30
0.0
 11
53436.2061084373635822
 21
22856.2256486386904726
 31
0.0
  0
SOLID
  5
3DC
  8
_1-5_
  6
CONTINUOUS
 62
     7
 10
53236.2061084373635822
 20
21670.9090713200712344
 30
0.0
 11
53214.0366421730723232
 21
21770.9090713200712344
 31
0.0
 12
53236.2061084373635822
 22
21770.9090713200712344
 32
0.0
 13
53236.2061084373635822
 23
21770.9090713200712344
 33
0.0
  0
LINE
  5
3DD
  8
_1-5_
  6
CONTINUOUS
 62
     7
 10
53236.2061084373635822
 20
21670.9090713200712344
 30
0.0
 11
53214.0366421730723232
 21
21770.9090713200712344
 31
0.0
  0
LINE
  5
3DE
  8
_1-5_
  6
CONTINUOUS
 62
     7
 10
53214.0366421730723232
 20
21770.9090713200712344
 30
0.0
 11
53236.2061084373635822
 21
21770.9090713200712344
 31
0.0
  0
LINE
  5
3DF
  8
_1-5_
  6
CONTINUOUS
 62
     7
 10
53236.2061084373635822
 20
21770.9090713200712344
 30
0.0
 11
53236.2061084373635822
 21
21670.9090713200712344
 31
0.0
  0
TEXT
  5
3E0
  8
_1-5_
 62
     5
 10
53436.2061084373635822
 20
22756.2256486386904726
 30
0.0
 40
200.0
  1
ニューテッペン
  0
LINE
  5
3E1
  8
_1-5_
  6
CONTINUOUS
 62
     7
 10
33929.4191134173670434
 20
21467.0082425261207391
 30
0.0
 11
33479.1875800554407761
 21
22246.832133478630567
 31
0.0
  0
LINE
  5
3E2
  8
_1-5_
  6
CONTINUOUS
 62
     7
 10
33479.1875800554407761
 20
22246.832133478630567
 30
0.0
 11
33279.1875800554407761
 21
22246.832133478630567
 31
0.0
  0
SOLID
  5
3E3
  8
_1-5_
  6
CONTINUOUS
 62
     7
 10
33929.4191134173670434
 20
21467.0082425261207391
 30
0.0
 11
33898.618434390577022
 21
21564.6955160367215285
 31
0.0
 12
33879.4191134173670434
 22
21553.6107829045686231
 32
0.0
 13
33879.4191134173670434
 23
21553.6107829045686231
 33
0.0
  0
LINE
  5
3E4
  8
_1-5_
  6
CONTINUOUS
 62
     7
 10
33929.4191134173670434
 20
21467.0082425261207391
 30
0.0
 11
33898.618434390577022
 21
21564.6955160367215285
 31
0.0
  0
LINE
  5
3E5
  8
_1-5_
  6
CONTINUOUS
 62
     7
 10
33898.618434390577022
 20
21564.6955160367215285
 30
0.0
 11
33879.4191134173670434
 21
21553.6107829045686231
 31
0.0
  0
LINE
  5
3E6
  8
_1-5_
  6
CONTINUOUS
 62
     7
 10
33879.4191134173670434
 20
21553.6107829045686231
 30
0.0
 11
33929.4191134173670434
 21
21467.0082425261207391
 31
0.0
  0
TEXT
  5
3E7
  8
_1-5_
 62
     5
 10
32359.1875800554407761
 20
22146.832133478630567
 30
0.0
 40
200.0
  1
水返し板金
  0
LINE
  5
3E8
  8
_1-5_
  6
CONTINUOUS
 62
     7
 10
49889.1080847586927121
 20
20924.6866187933992478
 30
0.0
 11
49438.8765513967591687
 21
21704.5105097458908858
 31
0.0
  0
LINE
  5
3E9
  8
_1-5_
  6
CONTINUOUS
 62
     7
 10
49438.8765513967591687
 20
21704.5105097458908858
 30
0.0
 11
49238.8765513967664447
 21
21704.5105097458908858
 31
0.0
  0
SOLID
  5
3EA
  8
_1-5_
  6
CONTINUOUS
 62
     7
 10
49889.1080847586927121
 20
20924.6866187933992478
 30
0.0
 11
49858.3074057319172425
 21
21022.3738923039891233
 31
0.0
 12
49839.1080847586927121
 22
21011.2891591718398558
 32
0.0
 13
49839.1080847586927121
 23
21011.2891591718398558
 33
0.0
  0
LINE
  5
3EB
  8
_1-5_
  6
CONTINUOUS
 62
     7
 10
49889.1080847586927121
 20
20924.6866187933992478
 30
0.0
 11
49858.3074057319172425
 21
21022.3738923039891233
 31
0.0
  0
LINE
  5
3EC
  8
_1-5_
  6
CONTINUOUS
 62
     7
 10
49858.3074057319172425
 20
21022.3738923039891233
 30
0.0
 11
49839.1080847586927121
 21
21011.2891591718398558
 31
0.0
  0
LINE
  5
3ED
  8
_1-5_
  6
CONTINUOUS
 62
     7
 10
49839.1080847586927121
 20
21011.2891591718398558
 30
0.0
 11
49889.1080847586927121
 21
20924.6866187933992478
 31
0.0
  0
TEXT
  5
3EE
  8
_1-5_
 62
     5
 10
48318.8765513967591687
 20
21604.5105097459017998
 30
0.0
 40
200.0
  1
水返し板金
  0
LINE
  5
3EF
  8
_1-5_
  6
CONTINUOUS
 62
     7
 10
26168.0028770539211109
 20
18302.3702076728914108
 30
0.0
 11
25792.809924561810476
 21
18952.2234640310089162
 31
0.0
  0
LINE
  5
3F0
  8
_1-5_
  6
CONTINUOUS
 62
     7
 10
25792.809924561810476
 20
18952.2234640310089162
 30
0.0
 11
25592.8099245617886481
 21
18952.2234640310089162
 31
0.0
  0
SOLID
  5
3F1
  8
_1-5_
  6
CONTINUOUS
 62
     7
 10
26168.0028770539211109
 20
18302.3702076728914108
 30
0.0
 11
26137.2021980271383654
 21
18400.0574811834812863
 31
0.0
 12
26118.0028770539211109
 22
18388.9727480513283808
 32
0.0
 13
26118.0028770539211109
 23
18388.9727480513283808
 33
0.0
  0
LINE
  5
3F2
  8
_1-5_
  6
CONTINUOUS
 62
     7
 10
26168.0028770539211109
 20
18302.3702076728914108
 30
0.0
 11
26137.2021980271383654
 21
18400.0574811834812863
 31
0.0
  0
LINE
  5
3F3
  8
_1-5_
  6
CONTINUOUS
 62
     7
 10
26137.2021980271383654
 20
18400.0574811834812863
 30
0.0
 11
26118.0028770539211109
 21
18388.9727480513283808
 31
0.0
  0
LINE
  5
3F4
  8
_1-5_
  6
CONTINUOUS
 62
     7
 10
26118.0028770539211109
 20
18388.9727480513283808
 30
0.0
 11
26168.0028770539211109
 21
18302.3702076728914108
 31
0.0
  0
TEXT
  5
3F5
  8
_1-5_
 62
     5
 10
24672.8099245617886481
 20
18852.2234640310198301
 30
0.0
 40
200.0
  1
コーキング
  0
LINE
  5
3F6
  8
_1-5_
  6
CONTINUOUS
 62
     7
 10
49549.6912202491512289
 20
20582.1631359039311064
 30
0.0
 11
49174.498267757036956
 21
21232.0163922620595258
 31
0.0
  0
LINE
  5
3F7
  8
_1-5_
  6
CONTINUOUS
 62
     7
 10
49174.498267757036956
 20
21232.0163922620595258
 30
0.0
 11
48974.498267757036956
 21
21232.0163922620595258
 31
0.0
  0
SOLID
  5
3F8
  8
_1-5_
  6
CONTINUOUS
 62
     7
 10
49549.6912202491512289
 20
20582.1631359039311064
 30
0.0
 11
49518.8905412223830353
 21
20679.850409414520982
 31
0.0
 12
49499.6912202491512289
 22
20668.7656762823717145
 32
0.0
 13
49499.6912202491512289
 23
20668.7656762823717145
 33
0.0
  0
LINE
  5
3F9
  8
_1-5_
  6
CONTINUOUS
 62
     7
 10
49549.6912202491512289
 20
20582.1631359039311064
 30
0.0
 11
49518.8905412223830353
 21
20679.850409414520982
 31
0.0
  0
LINE
  5
3FA
  8
_1-5_
  6
CONTINUOUS
 62
     7
 10
49518.8905412223830353
 20
20679.850409414520982
 30
0.0
 11
49499.6912202491512289
 21
20668.7656762823717145
 31
0.0
  0
LINE
  5
3FB
  8
_1-5_
  6
CONTINUOUS
 62
     7
 10
49499.6912202491512289
 20
20668.7656762823717145
 30
0.0
 11
49549.6912202491512289
 21
20582.1631359039311064
 31
0.0
  0
TEXT
  5
3FC
  8
_1-5_
 62
     5
 10
48054.4982677570515079
 20
21132.0163922620595258
 30
0.0
 40
200.0
  1
コーキング
  0
LINE
  5
3FD
  8
_1-5_
  6
CONTINUOUS
 62
     7
 10
3558.6012908644361232
 20
21084.7294705351087032
 30
0.0
 11
3558.6012908644361232
 21
22634.5465537181407853
 31
0.0
  0
LINE
  5
3FE
  8
_1-5_
  6
CONTINUOUS
 62
     7
 10
3558.6012908644361232
 20
22634.5465537181407853
 30
0.0
 11
3758.6012908644370327
 21
22634.5465537181407853
 31
0.0
  0
SOLID
  5
3FF
  8
_1-5_
  6
CONTINUOUS
 62
     7
 10
3558.6012908644361232
 20
21084.7294705351087032
 30
0.0
 11
3536.4318246001430452
 21
21184.7294705351087032
 31
0.0
 12
3558.6012908644361232
 22
21184.7294705351087032
 32
0.0
 13
3558.6012908644361232
 23
21184.7294705351087032
 33
0.0
  0
LINE
  5
400
  8
_1-5_
  6
CONTINUOUS
 62
     7
 10
3558.6012908644361232
 20
21084.7294705351087032
 30
0.0
 11
3536.4318246001430452
 21
21184.7294705351087032
 31
0.0
  0
LINE
  5
401
  8
_1-5_
  6
CONTINUOUS
 62
     7
 10
3536.4318246001430452
 20
21184.7294705351087032
 30
0.0
 11
3558.6012908644361232
 21
21184.7294705351087032
 31
0.0
  0
LINE
  5
402
  8
_1-5_
  6
CONTINUOUS
 62
     7
 10
3558.6012908644361232
 20
21184.7294705351087032
 30
0.0
 11
3558.6012908644361232
 21
21084.7294705351087032
 31
0.0
  0
TEXT
  5
403
  8
_1-5_
 62
     5
 10
3758.6012908644370327
 20
22534.5465537181298714
 30
0.0
 40
200.0
  1
水返し板金
  0
LINE
  5
404
  8
_1-5_
  6
CONTINUOUS
 62
     7
 10
5870.2978888127036043
 20
20472.2378279003096395
 30
0.0
 11
6369.4471027276022141
 21
21336.7896269589800795
 31
0.0
  0
LINE
  5
405
  8
_1-5_
  6
CONTINUOUS
 62
     7
 10
6369.4471027276022141
 20
21336.7896269589800795
 30
0.0
 11
6569.4471027276022141
 21
21336.7896269589800795
 31
0.0
  0
SOLID
  5
406
  8
_1-5_
  6
CONTINUOUS
 62
     7
 10
5870.2978888127036043
 20
20472.2378279003096395
 30
0.0
 11
5901.0985678394827119
 21
20569.9251014108886011
 31
0.0
 12
5920.2978888127036043
 22
20558.8403682787502476
 32
0.0
 13
5920.2978888127036043
 23
20558.8403682787502476
 33
0.0
  0
LINE
  5
407
  8
_1-5_
  6
CONTINUOUS
 62
     7
 10
5870.2978888127036043
 20
20472.2378279003096395
 30
0.0
 11
5901.0985678394827119
 21
20569.9251014108886011
 31
0.0
  0
LINE
  5
408
  8
_1-5_
  6
CONTINUOUS
 62
     7
 10
5901.0985678394827119
 20
20569.9251014108886011
 30
0.0
 11
5920.2978888127036043
 21
20558.8403682787502476
 31
0.0
  0
LINE
  5
409
  8
_1-5_
  6
CONTINUOUS
 62
     7
 10
5920.2978888127036043
 20
20558.8403682787502476
 30
0.0
 11
5870.2978888127036043
 21
20472.2378279003096395
 31
0.0
  0
TEXT
  5
40A
  8
_1-5_
 62
     5
 10
6569.4471027276022141
 20
21236.7896269589800795
 30
0.0
 40
200.0
  1
コーキング
  0
LINE
  5
40B
  8
_1-5_
  6
CONTINUOUS
 62
     7
 10
12138.2539390611200361
 20
18912.8490418622095603
 30
0.0
 11
12428.892123199040725
 21
19416.2491434086405206
 31
0.0
  0
LINE
  5
40C
  8
_1-5_
  6
CONTINUOUS
 62
     7
 10
12428.892123199040725
 20
19416.2491434086405206
 30
0.0
 11
12628.892123199040725
 21
19416.2491434086405206
 31
0.0
  0
SOLID
  5
40D
  8
_1-5_
  6
CONTINUOUS
 62
     7
 10
12138.2539390611200361
 20
18912.8490418622095603
 30
0.0
 11
12169.0546180878991436
 21
19010.5363153728103498
 31
0.0
 12
12188.253939061129131
 22
18999.4515822406501684
 32
0.0
 13
12188.253939061129131
 23
18999.4515822406501684
 33
0.0
  0
LINE
  5
40E
  8
_1-5_
  6
CONTINUOUS
 62
     7
 10
12138.2539390611200361
 20
18912.8490418622095603
 30
0.0
 11
12169.0546180878991436
 21
19010.5363153728103498
 31
0.0
  0
LINE
  5
40F
  8
_1-5_
  6
CONTINUOUS
 62
     7
 10
12169.0546180878991436
 20
19010.5363153728103498
 30
0.0
 11
12188.253939061129131
 21
18999.4515822406501684
 31
0.0
  0
LINE
  5
410
  8
_1-5_
  6
CONTINUOUS
 62
     7
 10
12188.253939061129131
 20
18999.4515822406501684
 30
0.0
 11
12138.2539390611200361
 21
18912.8490418622095603
 31
0.0
  0
TEXT
  5
411
  8
_1-5_
 62
     5
 10
12628.892123199040725
 20
19316.2491434086405206
 30
0.0
 40
200.0
  1
垂木より一回り小さいもの
  0
LINE
  5
412
  8
_0-4_
  6
CONTINUOUS
 62
     3
 10
56000.0
 20
14700.0
 30
0.0
 11
56000.0
 21
24700.0
 31
0.0
  0
LINE
  5
413
  8
_0-4_
  6
CONTINUOUS
 62
     3
 10
8000.0
 20
4700.0
 30
0.0
 11
8000.0
 21
14700.0
 31
0.0
  0
LINE
  5
414
  8
_0-1_
  6
CONTINUOUS
 62
     4
 10
4000.0
 20
10701.2318142473504849
 30
0.0
 11
7999.9999999999899956
 21
9101.2318142473523039
 31
0.0
  0
LINE
  5
415
  8
_0-1_
  6
CONTINUOUS
 62
     4
 10
4000.0
 20
10701.2318142473504849
 30
0.0
 11
-0.0000000000085265
 21
9101.2318142473523039
 31
0.0
  0
LINE
  5
416
  8
_0-1_
  6
CONTINUOUS
 62
     4
 10
7999.9999999999899956
 20
9359.7197249898017617
 30
0.0
 11
4389.1337623249846729
 21
10804.0662200598108029
 31
0.0
  0
LINE
  5
417
  8
_0-2_
  6
DASHED1
 62
     7
 10
7999.9999999999899956
 20
9381.2603842183434608
 30
0.0
 11
4396.5615758520716554
 21
10822.6357538775191642
 31
0.0
  0
LINE
  5
418
  8
_0-1_
  6
CONTINUOUS
 62
     4
 10
4389.1337623249846729
 20
10804.0662200598108029
 30
0.0
 11
4299.9999999999918145
 21
10581.231814247339571
 31
0.0
  0
LINE
  5
419
  8
_0-3_
  6
CONTINUOUS
 62
     2
 10
4396.5615758520716554
 20
10822.6357538775191642
 30
0.0
 11
4470.8397111228969152
 21
11008.3310920545700355
 31
0.0
  0
LINE
  5
41A
  8
_0-5_
  6
CONTINUOUS
 62
     7
 10
5472.3887174764086012
 20
11146.8774154141992767
 30
0.0
 11
5276.3636437998202382
 21
10837.5555787711400626
 31
0.0
  0
LINE
  5
41B
  8
_0-5_
  6
CONTINUOUS
 62
     7
 10
5781.2819550454432829
 20
10570.9662765872908494
 30
0.0
 11
6042.6487199475586749
 21
10983.3953921113497927
 31
0.0
  0
LINE
  5
41C
  8
_0-5_
  6
CONTINUOUS
 62
     7
 10
4520.4083031516202027
 20
11075.3157373448193539
 30
0.0
 11
5781.2819550454432829
 21
10570.9662765872908494
 31
0.0
  0
LINE
  5
41D
  8
_0-5_
  6
CONTINUOUS
 62
     7
 10
5678.8588657164946198
 20
11064.2893561181699624
 30
0.0
 11
5607.4826524181271452
 21
10705.1079753238300327
 31
0.0
  0
LINE
  5
41E
  8
_0-5_
  6
CONTINUOUS
 62
     7
 10
4934.7995606180211325
 20
11361.9130781575604487
 30
0.0
 11
4738.77448694143186
 21
11052.5912415145103296
 31
0.0
  0
LINE
  5
41F
  8
_0-5_
  6
CONTINUOUS
 62
     7
 10
5141.2697088581044227
 20
11279.3250188615202205
 30
0.0
 11
5069.8934955597369481
 21
10920.1436380671893858
 31
0.0
  0
LINE
  5
420
  8
_0-5_
  6
CONTINUOUS
 62
     7
 10
5813.9528006582104354
 20
10622.5199160278007184
 30
0.0
 11
4532.3043387013449319
 21
11135.1793008105396439
 31
0.0
  0
LINE
  5
421
  8
_0-5_
  6
CONTINUOUS
 62
     7
 10
5970.7728595994776697
 20
10869.9773853422393586
 30
0.0
 11
5664.5836230568247629
 21
10992.4530799592994299
 31
0.0
  0
LINE
  5
422
  8
_0-5_
  6
CONTINUOUS
 62
     7
 10
5931.567844864161998
 20
10808.1130180136206036
 30
0.0
 11
5650.3083803971449015
 21
10920.6168038004307164
 31
0.0
  0
LINE
  5
423
  8
_0-5_
  6
CONTINUOUS
 62
     7
 10
5892.3628301288490547
 20
10746.2486506850200385
 30
0.0
 11
5636.0331377374677686
 21
10848.7805276415692788
 31
0.0
  0
LINE
  5
424
  8
_0-5_
  6
CONTINUOUS
 62
     7
 10
5853.1578153935270166
 20
10684.3842833564103785
 30
0.0
 11
5621.7578950777979117
 21
10776.9442514827005652
 31
0.0
  0
LINE
  5
425
  8
_0-5_
  6
CONTINUOUS
 62
     7
 10
5433.183702741088382
 20
11085.0130480855896167
 30
0.0
 11
5126.9944661984336562
 21
11207.4887427026606019
 31
0.0
  0
LINE
  5
426
  8
_0-5_
  6
CONTINUOUS
 62
     7
 10
4895.5945458826972754
 20
11300.0487108289507887
 30
0.0
 11
4589.4053093400443686
 21
11422.52440544601086
 31
0.0
  0
LINE
  5
427
  8
_0-5_
  6
CONTINUOUS
 62
     7
 10
5393.9786880057727103
 20
11023.1486807569799566
 30
0.0
 11
5112.7192235387637993
 21
11135.6524665437900694
 31
0.0
  0
LINE
  5
428
  8
_0-5_
  6
CONTINUOUS
 62
     7
 10
4856.3895311473834226
 20
11238.1843435003393097
 30
0.0
 11
4575.1300666803717831
 21
11350.6881292871403275
 31
0.0
  0
LINE
  5
429
  8
_0-5_
  6
CONTINUOUS
 62
     7
 10
5354.7736732704570386
 20
10961.2843134283702966
 30
0.0
 11
5098.4439808790775714
 21
11063.8161903849195369
 31
0.0
  0
LINE
  5
42A
  8
_0-5_
  6
CONTINUOUS
 62
     7
 10
4817.1845164120659319
 20
11176.3199761717205547
 30
0.0
 11
4560.8548240206955597
 21
11278.851853128269795
 31
0.0
  0
LINE
  5
42B
  8
_0-5_
  6
CONTINUOUS
 62
     7
 10
5315.5686585351413669
 20
10899.4199460997606366
 30
0.0
 11
5084.168738219406805
 21
10991.9799142260599183
 31
0.0
  0
LINE
  5
42C
  8
_0-5_
  6
CONTINUOUS
 62
     7
 10
4777.9795016767529887
 20
11114.4556088431199896
 30
0.0
 11
4546.5795813610156983
 21
11207.0155769694101764
 31
0.0
  0
LINE
  5
42D
  8
_0-5_
  6
CONTINUOUS
 62
     7
 10
4520.4083031516202027
 20
11075.3157373448193539
 30
0.0
 11
4603.680551999713316
 21
11494.3606816048795736
 31
0.0
  0
LINE
  5
42E
  8
_0-4_
  6
CONTINUOUS
 62
     3
 10
4349.1072357728544375
 20
11121.6460598801895685
 30
0.0
 11
5881.9866395430581179
 21
10508.4942983721102792
 31
0.0
  0
LINE
  5
42F
  8
_0-4_
  6
CONTINUOUS
 62
     3
 10
5874.5588260159702259
 20
10489.9247645544000989
 30
0.0
 11
5781.7111569274338763
 21
10527.0638321898095455
 31
0.0
  0
LINE
  5
430
  8
_0-4_
  6
CONTINUOUS
 62
     3
 10
5881.9866395430581179
 20
10508.4942983721102792
 30
0.0
 11
5874.5588260159702259
 21
10489.9247645544000989
 31
0.0
  0
LINE
  5
431
  8
_0-5_
  6
CONTINUOUS
 62
     7
 10
6042.6487199475586749
 20
10983.3953921113497927
 30
0.0
 11
3999.9999999999918145
 21
11800.4548800903794472
 31
0.0
  0
LINE
  5
432
  8
_0-3_
  6
DASHED3
 62
     4
 10
7999.9999999999899956
 20
9488.9636803610483184
 30
0.0
 11
4433.7006434874792831
 21
10915.483422966030048
 31
0.0
  0
LINE
  5
433
  8
_0-1_
  6
CONTINUOUS
 62
     4
 10
3610.8662376750071417
 20
10804.066220059790794
 30
0.0
 11
3700.0
 21
10581.231814247339571
 31
0.0
  0
LINE
  5
434
  8
_0-3_
  6
CONTINUOUS
 62
     2
 10
3603.4384241479187949
 20
10822.6357538775191642
 30
0.0
 11
3529.1602888770939899
 21
11008.3310920545791305
 31
0.0
  0
LINE
  5
435
  8
_0-5_
  6
CONTINUOUS
 62
     7
 10
2527.6112825235768469
 20
11146.8774154141992767
 30
0.0
 11
2723.6363562001652099
 21
10837.5555787711400626
 31
0.0
  0
LINE
  5
436
  8
_0-5_
  6
CONTINUOUS
 62
     7
 10
2218.7180449545430747
 20
10570.9662765872908494
 30
0.0
 11
1957.3512800524329123
 21
10983.3953921113497927
 31
0.0
  0
LINE
  5
437
  8
_0-5_
  6
CONTINUOUS
 62
     7
 10
3479.5916968483647906
 20
11075.3157373448193539
 30
0.0
 11
2218.7180449545430747
 21
10570.9662765872908494
 31
0.0
  0
LINE
  5
438
  8
_0-5_
  6
CONTINUOUS
 62
     7
 10
2321.1411342834908282
 20
11064.2893561181699624
 30
0.0
 11
2392.5173475818578481
 21
10705.1079753238300327
 31
0.0
  0
LINE
  5
439
  8
_0-5_
  6
CONTINUOUS
 62
     7
 10
3065.200439381965225
 20
11361.9130781575604487
 30
0.0
 11
3261.2255130585540428
 21
11052.5912415145103296
 31
0.0
  0
LINE
  5
43A
  8
_0-5_
  6
CONTINUOUS
 62
     7
 10
2858.7302911418819349
 20
11279.3250188615202205
 30
0.0
 11
2930.1065044402489548
 21
10920.1436380671893858
 31
0.0
  0
LINE
  5
43B
  8
_0-5_
  6
CONTINUOUS
 62
     7
 10
2186.0471993417750127
 20
10622.5199160278007184
 30
0.0
 11
3467.6956612986400614
 21
11135.1793008105396439
 31
0.0
  0
LINE
  5
43C
  8
_0-5_
  6
CONTINUOUS
 62
     7
 10
2029.2271404005159638
 20
10869.9773853422393586
 30
0.0
 11
2335.4163769431611399
 21
10992.4530799592994299
 31
0.0
  0
LINE
  5
43D
  8
_0-5_
  6
CONTINUOUS
 62
     7
 10
2068.4321551358298166
 20
10808.1130180136206036
 30
0.0
 11
2349.6916196028478225
 21
10920.6168038004307164
 31
0.0
  0
LINE
  5
43E
  8
_0-5_
  6
CONTINUOUS
 62
     7
 10
2107.637169871145943
 20
10746.2486506850200385
 30
0.0
 11
2363.9668622625181342
 21
10848.7805276415801927
 31
0.0
  0
LINE
  5
43F
  8
_0-5_
  6
CONTINUOUS
 62
     7
 10
2146.8421846064579768
 20
10684.3842833564303874
 30
0.0
 11
2378.2421049221879912
 21
10776.9442514827096602
 31
0.0
  0
LINE
  5
440
  8
_0-5_
  6
CONTINUOUS
 62
     7
 10
2566.8162972589047968
 20
11085.0130480855896167
 30
0.0
 11
2873.0055338015517918
 21
11207.4887427026606019
 31
0.0
  0
LINE
  5
441
  8
_0-5_
  6
CONTINUOUS
 62
     7
 10
3104.4054541172959034
 20
11300.0487108289507887
 30
0.0
 11
3410.594690659943808
 21
11422.52440544601086
 31
0.0
  0
LINE
  5
442
  8
_0-5_
  6
CONTINUOUS
 62
     7
 10
2606.0213119942209232
 20
11023.1486807569799566
 30
0.0
 11
2887.280776461221194
 21
11135.6524665437900694
 31
0.0
  0
LINE
  5
443
  8
_0-5_
  6
CONTINUOUS
 62
     7
 10
3143.6104688526120299
 20
11238.1843435003193008
 30
0.0
 11
3424.8699333196209409
 21
11350.6881292871494225
 31
0.0
  0
LINE
  5
444
  8
_0-5_
  6
CONTINUOUS
 62
     7
 10
2645.2263267295338665
 20
10961.2843134283702966
 30
0.0
 11
2901.5560191209087861
 21
11063.8161903849195369
 31
0.0
  0
LINE
  5
445
  8
_0-5_
  6
CONTINUOUS
 62
     7
 10
3182.8154835879249731
 20
11176.3199761717205547
 30
0.0
 11
3439.1451759792971643
 21
11278.8518531282607
 31
0.0
  0
LINE
  5
446
  8
_0-5_
  6
CONTINUOUS
 62
     7
 10
2684.4313414648490834
 20
10899.4199460997606366
 30
0.0
 11
2915.8312617805790978
 21
10991.9799142260599183
 31
0.0
  0
LINE
  5
447
  8
_0-5_
  6
CONTINUOUS
 62
     7
 10
3222.0204983232410996
 20
11114.4556088431199896
 30
0.0
 11
3453.4204186389702045
 21
11207.0155769694101764
 31
0.0
  0
LINE
  5
448
  8
_0-5_
  6
CONTINUOUS
 62
     7
 10
3479.5916968483647906
 20
11075.3157373448193539
 30
0.0
 11
3396.3194480002698583
 21
11494.3606816048795736
 31
0.0
  0
LINE
  5
449
  8
_0-4_
  6
CONTINUOUS
 62
     3
 10
3650.8927642271291916
 20
11121.6460598801895685
 30
0.0
 11
2118.013360456927785
 21
10508.4942983720902703
 31
0.0
  0
LINE
  5
44A
  8
_0-4_
  6
CONTINUOUS
 62
     3
 10
2125.4411739840152222
 20
10489.9247645544000989
 30
0.0
 11
2218.2888430725570288
 21
10527.0638321898095455
 31
0.0
  0
LINE
  5
44B
  8
_0-4_
  6
CONTINUOUS
 62
     3
 10
2118.013360456927785
 20
10508.4942983720902703
 30
0.0
 11
2125.4411739840152222
 21
10489.9247645544000989
 31
0.0
  0
LINE
  5
44C
  8
_0-3_
  6
DASHED3
 62
     4
 10
0.0
 20
9488.9636803610483184
 30
0.0
 11
3566.299356512507984
 21
10915.483422966030048
 31
0.0
  0
LINE
  5
44D
  8
_0-3_
  6
CONTINUOUS
 62
     2
 10
3529.1602888770939899
 20
11008.3310920545791305
 30
0.0
 11
0.0
 21
9596.6669765037386242
 31
0.0
  0
LINE
  5
44E
  8
_0-3_
  6
CONTINUOUS
 62
     2
 10
4470.8397111228969152
 20
11008.3310920545700355
 30
0.0
 11
8000.0
 21
9596.6669765037277102
 31
0.0
  0
LINE
  5
44F
  8
_0-1_
  6
CONTINUOUS
 62
     4
 10
-0.0000000000085265
 20
9359.7197249898017617
 30
0.0
 11
3610.8662376749998657
 21
10804.066220059799889
 31
0.0
  0
LINE
  5
450
  8
_0-2_
  6
DASHED1
 62
     7
 10
-0.0000000000085265
 20
9381.2603842183434608
 30
0.0
 11
3603.4384241479187949
 21
10822.6357538774991554
 31
0.0
  0
LINE
  5
451
  8
_0-5_
  6
CONTINUOUS
 62
     7
 10
1990.0221256651909698
 20
10931.8417526708508376
 30
0.0
 11
3999.9999999999918145
 21
11735.8329024047707208
 31
0.0
  0
LINE
  5
452
  8
_0-5_
  6
CONTINUOUS
 62
     7
 10
6009.9778743347997079
 20
10931.8417526708508376
 30
0.0
 11
3999.9999999999918145
 21
11735.8329024047707208
 31
0.0
  0
LINE
  5
453
  8
_0-5_
  6
CONTINUOUS
 62
     7
 10
1957.3512800524329123
 20
10983.3953921113497927
 30
0.0
 11
3999.9999999999918145
 21
11800.4548800903794472
 31
0.0
  0
LINE
  5
454
  8
_0-1_
  6
CONTINUOUS
 62
     4
 10
2950.0
 20
7431.9021489631413715
 30
0.0
 11
5050.0
 21
7431.9021489631413715
 31
0.0
  0
LINE
  5
455
  8
_0-1_
  6
CONTINUOUS
 62
     4
 10
2950.0
 20
7431.9021489631413715
 30
0.0
 11
2950.0
 21
9531.9021489631395525
 31
0.0
  0
LINE
  5
456
  8
_0-1_
  6
CONTINUOUS
 62
     4
 10
2950.0
 20
9531.9021489631395525
 30
0.0
 11
5050.0
 21
9531.9021489631395525
 31
0.0
  0
LINE
  5
457
  8
_0-1_
  6
CONTINUOUS
 62
     4
 10
5050.0
 20
7431.9021489631413715
 30
0.0
 11
5050.0
 21
9531.9021489631395525
 31
0.0
  0
LINE
  5
458
  8
_0-1_
  6
CONTINUOUS
 62
     4
 10
4000.0
 20
9731.9021489631395525
 30
0.0
 11
3500.0
 21
9531.9021489631395525
 31
0.0
  0
LINE
  5
459
  8
_0-1_
  6
CONTINUOUS
 62
     4
 10
2950.0
 20
9311.9021489631395525
 30
0.0
 11
0.0
 21
8131.9021489631395525
 31
0.0
  0
LINE
  5
45A
  8
_0-1_
  6
CONTINUOUS
 62
     4
 10
4000.0
 20
9731.9021489631395525
 30
0.0
 11
4500.0
 21
9531.9021489631395525
 31
0.0
  0
LINE
  5
45B
  8
_0-1_
  6
CONTINUOUS
 62
     4
 10
5050.0
 20
9311.9021489631395525
 30
0.0
 11
8000.0
 21
8131.9021489631395525
 31
0.0
  0
LINE
  5
45C
  8
_0-1_
  6
CONTINUOUS
 62
     4
 10
5050.0
 20
9531.9021489631395525
 30
0.0
 11
2950.0
 21
7431.9021489631413715
 31
0.0
  0
LINE
  5
45D
  8
_0-1_
  6
CONTINUOUS
 62
     4
 10
5050.0
 20
7431.9021489631413715
 30
0.0
 11
2950.0
 21
9531.9021489631395525
 31
0.0
  0
LINE
  5
45E
  8
_0-4_
  6
CONTINUOUS
 62
     3
 10
8000.0
 20
4700.0
 30
0.0
 11
16000.0
 21
4700.0
 31
0.0
  0
LINE
  5
45F
  8
_0-1_
  6
CONTINUOUS
 62
     4
 10
11240.0
 20
7381.5395222520310199
 30
0.0
 11
12760.0
 21
7381.5395222520310199
 31
0.0
  0
LINE
  5
460
  8
_0-1_
  6
CONTINUOUS
 62
     4
 10
11240.0
 20
4700.0
 30
0.0
 11
11240.0
 21
7381.5395222520310199
 31
0.0
  0
LINE
  5
461
  8
_0-1_
  6
CONTINUOUS
 62
     4
 10
12760.0
 20
4700.0
 30
0.0
 11
12760.0
 21
7381.5395222520310199
 31
0.0
  0
LINE
  5
462
  8
_0-1_
  6
CONTINUOUS
 62
     4
 10
12000.0
 20
7381.5395222520310199
 30
0.0
 11
12000.0
 21
4700.0
 31
0.0
  0
LINE
  5
463
  8
_0-1_
  6
CONTINUOUS
 62
     4
 10
12000.0
 20
7381.5395222520310199
 30
0.0
 11
11240.0
 21
4700.0
 31
0.0
  0
LINE
  5
464
  8
_0-1_
  6
CONTINUOUS
 62
     4
 10
12760.0
 20
7381.5395222520310199
 30
0.0
 11
12000.0
 21
4700.0
 31
0.0
  0
LINE
  5
465
  8
_0-1_
  6
CONTINUOUS
 62
     4
 10
11620.0
 20
9161.5395222520328389
 30
0.0
 11
11620.0
 21
7381.5395222520310199
 31
0.0
  0
LINE
  5
466
  8
_0-1_
  6
CONTINUOUS
 62
     4
 10
11620.0
 20
9161.5395222520328389
 30
0.0
 11
12380.0
 21
9161.5395222520328389
 31
0.0
  0
LINE
  5
467
  8
_0-1_
  6
CONTINUOUS
 62
     4
 10
12380.0
 20
9161.5395222520328389
 30
0.0
 11
12380.0
 21
7381.5395222520310199
 31
0.0
  0
LINE
  5
468
  8
_0-1_
  6
CONTINUOUS
 62
     4
 10
12380.0
 20
9161.5395222520328389
 30
0.0
 11
11620.0
 21
7381.5395222520310199
 31
0.0
  0
LINE
  5
469
  8
_0-1_
  6
CONTINUOUS
 62
     4
 10
11620.0
 20
9161.5395222520328389
 30
0.0
 11
11620.0
 21
10549.2318142473504849
 31
0.0
  0
LINE
  5
46A
  8
_0-1_
  6
CONTINUOUS
 62
     4
 10
12380.0
 20
9161.5395222520328389
 30
0.0
 11
12380.0
 21
10549.2318142473504849
 31
0.0
  0
LINE
  5
46B
  8
_0-1_
  6
CONTINUOUS
 62
     4
 10
16000.0
 20
9359.7197249898017617
 30
0.0
 11
12389.1337623249801254
 21
10804.0662200598108029
 31
0.0
  0
LINE
  5
46C
  8
_0-1_
  6
CONTINUOUS
 62
     4
 10
16000.0
 20
9101.2318142473523039
 30
0.0
 11
12300.0
 21
10581.2318142473504849
 31
0.0
  0
LINE
  5
46D
  8
_0-2_
  6
DASHED1
 62
     7
 10
16000.0
 20
9381.2603842183434608
 30
0.0
 11
12396.561575852059832
 21
10822.6357538775191642
 31
0.0
  0
LINE
  5
46E
  8
_0-1_
  6
CONTINUOUS
 62
     4
 10
12389.1337623249692115
 20
10804.0662200598108029
 30
0.0
 11
12299.9999999999799911
 21
10581.2318142473595799
 31
0.0
  0
LINE
  5
46F
  8
_0-3_
  6
CONTINUOUS
 62
     2
 10
12396.561575852059832
 20
10822.6357538775191642
 30
0.0
 11
12470.8397111228805443
 21
11008.3310920545700355
 31
0.0
  0
LINE
  5
470
  8
_0-5_
  6
CONTINUOUS
 62
     7
 10
13796.1375820995999675
 20
10565.0240257656405447
 30
0.0
 11
14057.5043470017208165
 21
10977.453141289699488
 31
0.0
  0
LINE
  5
471
  8
_0-5_
  6
CONTINUOUS
 62
     7
 10
12535.2639302057796158
 20
11069.3734865231708682
 30
0.0
 11
13796.1375820995999675
 21
10565.0240257656405447
 31
0.0
  0
LINE
  5
472
  8
_0-5_
  6
CONTINUOUS
 62
     7
 10
13693.714492770650395
 20
11058.3471052965105628
 30
0.0
 11
13622.3382794722801918
 21
10699.1657245021706331
 31
0.0
  0
LINE
  5
473
  8
_0-5_
  6
CONTINUOUS
 62
     7
 10
12949.6551876721805456
 20
11355.970827335910144
 30
0.0
 11
12753.6301139955903636
 21
11046.6489906928600249
 31
0.0
  0
LINE
  5
474
  8
_0-5_
  6
CONTINUOUS
 62
     7
 10
13487.2443445305707428
 20
11140.935164592550791
 30
0.0
 11
13291.2192708539805608
 21
10831.6133279494897579
 31
0.0
  0
LINE
  5
475
  8
_0-5_
  6
CONTINUOUS
 62
     7
 10
13156.1253359122601978
 20
11273.3827680398699158
 30
0.0
 11
13084.7491226139009086
 21
10914.2013872455299861
 31
0.0
  0
LINE
  5
476
  8
_0-5_
  6
CONTINUOUS
 62
     7
 10
13828.8084277123707579
 20
10616.5776652061504137
 30
0.0
 11
12547.1599657554997975
 21
11129.2370499888893391
 31
0.0
  0
LINE
  5
477
  8
_0-5_
  6
CONTINUOUS
 62
     7
 10
13985.6284866536407208
 20
10864.0351345205799589
 30
0.0
 11
13679.4392501109796285
 21
10986.5108291376491252
 31
0.0
  0
LINE
  5
478
  8
_0-5_
  6
CONTINUOUS
 62
     7
 10
13946.4234719183295965
 20
10802.1707671919702989
 30
0.0
 11
13665.1640074513106811
 21
10914.6745529787804116
 31
0.0
  0
LINE
  5
479
  8
_0-5_
  6
CONTINUOUS
 62
     7
 10
13907.2184571830093773
 20
10740.3063998633606388
 30
0.0
 11
13650.8887647916199057
 21
10842.8382768199098791
 31
0.0
  0
LINE
  5
47A
  8
_0-5_
  6
CONTINUOUS
 62
     7
 10
13868.0134424476891581
 20
10678.4420325347600738
 30
0.0
 11
13636.6135221319491393
 21
10771.0020006610393466
 31
0.0
  0
LINE
  5
47B
  8
_0-5_
  6
CONTINUOUS
 62
     7
 10
13448.0393297952505236
 20
11079.070797263939312
 30
0.0
 11
13141.8500932525894314
 21
11201.5464918809993833
 31
0.0
  0
LINE
  5
47C
  8
_0-5_
  6
CONTINUOUS
 62
     7
 10
12910.4501729368603264
 20
11294.106460007300484
 30
0.0
 11
12604.2609363941992342
 21
11416.5821546243605553
 31
0.0
  0
LINE
  5
47D
  8
_0-5_
  6
CONTINUOUS
 62
     7
 10
13408.8343150599393994
 20
11017.2064299353405659
 30
0.0
 11
13127.5748505929204839
 21
11129.7102157221397647
 31
0.0
  0
LINE
  5
47E
  8
_0-5_
  6
CONTINUOUS
 62
     7
 10
12871.2451582015401073
 20
11232.24209267867991
 30
0.0
 11
12589.9856937345302867
 21
11344.7458784654900228
 31
0.0
  0
LINE
  5
47F
  8
_0-5_
  6
CONTINUOUS
 62
     7
 10
13369.6293003246191802
 20
10955.3420626067199919
 30
0.0
 11
13113.2996079332297086
 21
11057.8739395632692322
 31
0.0
  0
LINE
  5
480
  8
_0-5_
  6
CONTINUOUS
 62
     7
 10
12832.040143466230802
 20
11170.37772535007025
 30
0.0
 11
12575.7104510748595203
 21
11272.9096023066194903
 31
0.0
  0
LINE
  5
481
  8
_0-5_
  6
CONTINUOUS
 62
     7
 10
13330.4242855893098749
 20
10893.4776952781103319
 30
0.0
 11
13099.0243652735607611
 21
10986.0376634044096136
 31
0.0
  0
LINE
  5
482
  8
_0-5_
  6
CONTINUOUS
 62
     7
 10
12792.8351287309196778
 20
11108.5133580214696849
 30
0.0
 11
12561.435208415170564
 21
11201.0733261477598717
 31
0.0
  0
LINE
  5
483
  8
_0-5_
  6
CONTINUOUS
 62
     7
 10
12535.2639302057796158
 20
11069.3734865231708682
 30
0.0
 11
12618.5361790538700006
 21
11488.4184307832292689
 31
0.0
  0
LINE
  5
484
  8
_0-4_
  6
CONTINUOUS
 62
     3
 10
12363.9628628270202171
 20
11115.7038090585392638
 30
0.0
 11
13896.8422665972193499
 21
10502.5520475504599744
 31
0.0
  0
LINE
  5
485
  8
_0-4_
  6
CONTINUOUS
 62
     3
 10
13889.4144530701305484
 20
10483.9825137327497941
 30
0.0
 11
13796.5667839815996558
 21
10521.1215813681592408
 31
0.0
  0
LINE
  5
486
  8
_0-4_
  6
CONTINUOUS
 62
     3
 10
13896.8422665972193499
 20
10502.5520475504599744
 30
0.0
 11
13889.4144530701305484
 21
10483.9825137327497941
 31
0.0
  0
LINE
  5
487
  8
_0-5_
  6
CONTINUOUS
 62
     7
 10
14057.5043470017208165
 20
10977.453141289699488
 30
0.0
 11
12000.0
 21
11800.4548800903903611
 31
0.0
  0
LINE
  5
488
  8
_0-5_
  6
CONTINUOUS
 62
     7
 10
14024.833501388950026
 20
10925.8995018492005329
 30
0.0
 11
12000.0
 21
11735.8329024047798157
 31
0.0
  0
LINE
  5
489
  8
_0-1_
  6
CONTINUOUS
 62
     4
 10
11620.0
 20
9161.5395222520328389
 30
0.0
 11
11620.0
 21
10549.2318142473504849
 31
0.0
  0
LINE
  5
48A
  8
_0-3_
  6
CONTINUOUS
 62
     2
 10
12470.8397111228805443
 20
11008.3310920545700355
 30
0.0
 11
16000.0
 21
9596.6669765037277102
 31
0.0
  0
LINE
  5
48B
  8
_0-3_
  6
DASHED3
 62
     4
 10
12433.7006434874801926
 20
10915.4834229660500569
 30
0.0
 11
16000.0
 21
9488.9636803610392235
 31
0.0
  0
LINE
  5
48C
  8
_0-1_
  6
CONTINUOUS
 62
     4
 10
12380.0
 20
7533.5395222520310199
 30
0.0
 11
16000.0
 21
6085.5395222520255629
 31
0.0
  0
LINE
  5
48D
  8
_0-1_
  6
CONTINUOUS
 62
     4
 10
11620.0
 20
7533.5395222520310199
 30
0.0
 11
8000.0
 21
6085.5395222520310199
 31
0.0
  0
LINE
  5
48E
  8
_0-1_
  6
CONTINUOUS
 62
     4
 10
11610.8662376750107796
 20
10804.0662200598108029
 30
0.0
 11
11700.0000000000090949
 21
10581.2318142473595799
 31
0.0
  0
LINE
  5
48F
  8
_0-1_
  6
CONTINUOUS
 62
     4
 10
7999.9999999999899956
 20
9359.7197249898017617
 30
0.0
 11
11610.8662376750107796
 21
10804.0662200598108029
 31
0.0
  0
LINE
  5
490
  8
_0-2_
  6
DASHED1
 62
     7
 10
7999.9999999999899956
 20
9381.2603842183434608
 30
0.0
 11
11603.438424147940168
 21
10822.6357538775100693
 31
0.0
  0
LINE
  5
491
  8
_0-1_
  6
CONTINUOUS
 62
     4
 10
7999.9999999999899956
 20
9101.2318142473523039
 30
0.0
 11
11700.0
 21
10581.2318142473504849
 31
0.0
  0
LINE
  5
492
  8
_0-1_
  6
CONTINUOUS
 62
     4
 10
8000.0
 20
9359.7197249898017617
 30
0.0
 11
11610.8662376750107796
 21
10804.0662200598108029
 31
0.0
  0
LINE
  5
493
  8
_0-1_
  6
CONTINUOUS
 62
     4
 10
8000.0
 20
9101.2318142473523039
 30
0.0
 11
11700.0
 21
10581.2318142473504849
 31
0.0
  0
LINE
  5
494
  8
_0-2_
  6
DASHED1
 62
     7
 10
8000.0
 20
9381.2603842183434608
 30
0.0
 11
11603.4384241479201592
 21
10822.6357538775191642
 31
0.0
  0
LINE
  5
495
  8
_0-1_
  6
CONTINUOUS
 62
     4
 10
11610.8662376750107796
 20
10804.0662200598108029
 30
0.0
 11
11700.0000000000090949
 21
10581.231814247339571
 31
0.0
  0
LINE
  5
496
  8
_0-3_
  6
CONTINUOUS
 62
     2
 10
11603.4384241479201592
 20
10822.6357538775191642
 30
0.0
 11
11529.1602888770994468
 21
11008.3310920545700355
 31
0.0
  0
LINE
  5
497
  8
_0-5_
  6
CONTINUOUS
 62
     7
 10
10203.8624179003800236
 20
10565.0240257656405447
 30
0.0
 11
9942.4956529982737266
 21
10977.453141289699488
 31
0.0
  0
LINE
  5
498
  8
_0-5_
  6
CONTINUOUS
 62
     7
 10
11464.7360697942003753
 20
11069.3734865231708682
 30
0.0
 11
10203.8624179003800236
 21
10565.0240257656405447
 31
0.0
  0
LINE
  5
499
  8
_0-5_
  6
CONTINUOUS
 62
     7
 10
10306.2855072293295962
 20
11058.3471052965105628
 30
0.0
 11
10377.6617205276997993
 21
10699.1657245021706331
 31
0.0
  0
LINE
  5
49A
  8
_0-5_
  6
CONTINUOUS
 62
     7
 10
11050.3448123278103594
 20
11355.970827335910144
 30
0.0
 11
11246.3698860043896275
 21
11046.6489906928600249
 31
0.0
  0
LINE
  5
49B
  8
_0-5_
  6
CONTINUOUS
 62
     7
 10
10512.7556554694092483
 20
11140.935164592550791
 30
0.0
 11
10708.7807291459994303
 21
10831.6133279494897579
 31
0.0
  0
LINE
  5
49C
  8
_0-5_
  6
CONTINUOUS
 62
     7
 10
10843.8746640877307073
 20
11273.3827680398699158
 30
0.0
 11
10915.2508773860899964
 21
10914.2013872455299861
 31
0.0
  0
LINE
  5
49D
  8
_0-5_
  6
CONTINUOUS
 62
     7
 10
10171.1915722876092332
 20
10616.5776652061304048
 30
0.0
 11
11452.8400342444801936
 21
11129.2370499888893391
 31
0.0
  0
LINE
  5
49E
  8
_0-5_
  6
CONTINUOUS
 62
     7
 10
10014.3715133463501843
 20
10864.035134520570864
 30
0.0
 11
10320.5607498890003626
 21
10986.5108291376691341
 31
0.0
  0
LINE
  5
49F
  8
_0-5_
  6
CONTINUOUS
 62
     7
 10
10053.5765280816704035
 20
10802.1707671919702989
 30
0.0
 11
10334.835992548680224
 21
10914.6745529788004205
 31
0.0
  0
LINE
  5
4A0
  8
_0-5_
  6
CONTINUOUS
 62
     7
 10
10092.7815428169797087
 20
10740.3063998633606388
 30
0.0
 11
10349.1112352083691803
 21
10842.8382768199098791
 31
0.0
  0
LINE
  5
4A1
  8
_0-5_
  6
CONTINUOUS
 62
     7
 10
10131.9865575522999279
 20
10678.4420325347600738
 30
0.0
 11
10363.3864778680308518
 21
10771.0020006610393466
 31
0.0
  0
LINE
  5
4A2
  8
_0-5_
  6
CONTINUOUS
 62
     7
 10
10551.9606702047403815
 20
11079.070797263939312
 30
0.0
 11
10858.1499067474105686
 21
11201.5464918809993833
 31
0.0
  0
LINE
  5
4A3
  8
_0-5_
  6
CONTINUOUS
 62
     7
 10
11089.5498270631396736
 20
11294.106460007300484
 30
0.0
 11
11395.7390636057898519
 21
11416.5821546243696503
 31
0.0
  0
LINE
  5
4A4
  8
_0-5_
  6
CONTINUOUS
 62
     7
 10
10591.1656849400606006
 20
11017.206429935320557
 30
0.0
 11
10872.4251494070795161
 21
11129.7102157221397647
 31
0.0
  0
LINE
  5
4A5
  8
_0-5_
  6
CONTINUOUS
 62
     7
 10
11128.7548417984507978
 20
11232.24209267867991
 30
0.0
 11
11410.0143062654497044
 21
11344.7458784654900228
 31
0.0
  0
LINE
  5
4A6
  8
_0-5_
  6
CONTINUOUS
 62
     7
 10
10630.3706996753699059
 20
10955.3420626067400008
 30
0.0
 11
10886.7003920667502825
 21
11057.8739395632692322
 31
0.0
  0
LINE
  5
4A7
  8
_0-5_
  6
CONTINUOUS
 62
     7
 10
11167.959856533769198
 20
11170.37772535007025
 30
0.0
 11
11424.2895489251404797
 21
11272.9096023066194903
 31
0.0
  0
LINE
  5
4A8
  8
_0-5_
  6
CONTINUOUS
 62
     7
 10
10669.5757144106901251
 20
10893.4776952781103319
 30
0.0
 11
10900.97563472641923
 21
10986.0376634043896047
 31
0.0
  0
LINE
  5
4A9
  8
_0-5_
  6
CONTINUOUS
 62
     7
 10
11207.1648712690803222
 20
11108.5133580214696849
 30
0.0
 11
11438.5647915848094271
 21
11201.0733261477598717
 31
0.0
  0
LINE
  5
4AA
  8
_0-5_
  6
CONTINUOUS
 62
     7
 10
11464.7360697942003753
 20
11069.3734865231708682
 30
0.0
 11
11381.4638209461099905
 21
11488.4184307832292689
 31
0.0
  0
LINE
  5
4AB
  8
_0-4_
  6
CONTINUOUS
 62
     3
 10
11636.037137172970688
 20
11115.7038090585392638
 30
0.0
 11
10103.1577334027697361
 21
10502.5520475504599744
 31
0.0
  0
LINE
  5
4AC
  8
_0-4_
  6
CONTINUOUS
 62
     3
 10
10110.5855469298603566
 20
10483.9825137327497941
 30
0.0
 11
10203.4332160184003442
 21
10521.1215813681592408
 31
0.0
  0
LINE
  5
4AD
  8
_0-4_
  6
CONTINUOUS
 62
     3
 10
10103.1577334027697361
 20
10502.5520475504599744
 30
0.0
 11
10110.5855469298603566
 21
10483.9825137327497941
 31
0.0
  0
LINE
  5
4AE
  8
_0-5_
  6
CONTINUOUS
 62
     7
 10
9942.4956529982737266
 20
10977.453141289699488
 30
0.0
 11
12000.0
 21
11800.4548800903903611
 31
0.0
  0
LINE
  5
4AF
  8
_0-5_
  6
CONTINUOUS
 62
     7
 10
9975.1664986110245081
 20
10925.8995018492005329
 30
0.0
 11
12000.0
 21
11735.8329024047798157
 31
0.0
  0
LINE
  5
4B0
  8
_0-3_
  6
CONTINUOUS
 62
     2
 10
11529.1602888770994468
 20
11008.3310920545700355
 30
0.0
 11
8000.0
 21
9596.6669765037531761
 31
0.0
  0
LINE
  5
4B1
  8
_0-3_
  6
DASHED3
 62
     4
 10
11566.2993565125198074
 20
10915.4834229660500569
 30
0.0
 11
8000.0
 21
9488.9636803610483184
 31
0.0
  0
LINE
  5
4B2
  8
_0-0_
  6
CENTER1
 62
     4
 10
4000.0
 20
4700.0
 30
0.0
 11
3999.9999999999918145
 21
14400.0
 31
0.0
  0
LINE
  5
4B3
  8
_0-0_
  6
CENTER1
 62
     4
 10
12000.0
 20
4700.0
 30
0.0
 11
12000.0
 21
14400.0
 31
0.0
  0
LINE
  5
4B4
  8
_0-4_
  6
CONTINUOUS
 62
     3
 10
8000.0
 20
14700.0
 30
0.0
 11
16000.0
 21
14700.0
 31
0.0
  0
LINE
  5
4B5
  8
_0-4_
  6
CONTINUOUS
 62
     3
 10
0.0
 20
14700.0
 30
0.0
 11
8000.0
 21
14700.0
 31
0.0
  0
LINE
  5
4B6
  8
_0-4_
  6
CONTINUOUS
 62
     3
 10
0.0
 20
14400.0
 30
0.0
 11
8000.0
 21
14400.0
 31
0.0
  0
LINE
  5
4B7
  8
_0-4_
  6
CONTINUOUS
 62
     3
 10
2000.0
 20
14700.0
 30
0.0
 11
2000.0
 21
14400.0
 31
0.0
  0
LINE
  5
4B8
  8
_0-4_
  6
CONTINUOUS
 62
     3
 10
4000.0
 20
14700.0
 30
0.0
 11
4000.0
 21
14400.0
 31
0.0
  0
TEXT
  5
4B9
  8
_0-1_
 62
     4
 10
257.3602414003544823
 20
14450.0
 30
0.0
 40
200.0
  1
ニューテッペン
  0
LINE
  5
4BA
  8
_0-4_
  6
CONTINUOUS
 62
     3
 10
8000.0
 20
14400.0
 30
0.0
 11
16000.0
 21
14400.0
 31
0.0
  0
LINE
  5
4BB
  8
_0-4_
  6
CONTINUOUS
 62
     3
 10
10000.0
 20
14700.0
 30
0.0
 11
10000.0
 21
14400.0
 31
0.0
  0
LINE
  5
4BC
  8
_0-4_
  6
CONTINUOUS
 62
     3
 10
12000.0
 20
14700.0
 30
0.0
 11
12000.0
 21
14400.0
 31
0.0
  0
TEXT
  5
4BD
  8
_0-1_
 62
     4
 10
8257.3602414003544254
 20
14450.0
 30
0.0
 40
200.0
  1
ニューテッペン
  0
TEXT
  5
4BE
  8
_0-1_
 62
     4
 10
10257.3602414003507874
 20
14450.0
 30
0.0
 40
200.0
  1
2×4コロニアル
  0
LINE
  5
4BF
  8
_0-4_
  6
CONTINUOUS
 62
     3
 10
0.0
 20
4700.0
 30
0.0
 11
8000.0
 21
4700.0
 31
0.0
  0
TEXT
  5
4C0
  8
_0-1_
 62
     4
 10
7233.8546117923970087
 20
14450.0
 30
0.0
 40
200.0
  1
S=1/5
  0
TEXT
  5
4C1
  8
_0-1_
 62
     4
 10
15233.8546117923997372
 20
14450.0
 30
0.0
 40
200.0
  1
S=1/5
  0
LINE
  5
4C2
  8
_0-4_
  6
CONTINUOUS
 62
     3
 10
3650.8927642271291916
 20
11121.6460598801895685
 30
0.0
 11
3628.6093236458891624
 21
11177.3546613333001005
 31
0.0
  0
LINE
  5
4C3
  8
_0-4_
  6
CONTINUOUS
 62
     3
 10
4349.1072357728544375
 20
11121.6460598801895685
 30
0.0
 11
4371.3906763541017426
 21
11177.3546613333001005
 31
0.0
  0
LINE
  5
4C4
  8
_0-4_
  6
CONTINUOUS
 62
     3
 10
11636.037137172970688
 20
11115.7038090585392638
 30
0.0
 11
11613.7536965917206544
 21
11171.4124105116497958
 31
0.0
  0
LINE
  5
4C5
  8
_0-4_
  6
CONTINUOUS
 62
     3
 10
12363.9628628270202171
 20
11115.7038090585392638
 30
0.0
 11
12386.2463034082593367
 21
11171.4124105116497958
 31
0.0
  0
LINE
  5
4C6
  8
_0-4_
  6
CONTINUOUS
 62
     3
 10
16000.0
 20
4700.0
 30
0.0
 11
16000.0
 21
14700.0
 31
0.0
  0
LINE
  5
4C7
  8
_0-4_
  6
CONTINUOUS
 62
     3
 10
24000.0
 20
4700.0
 30
0.0
 11
24000.0
 21
14700.0
 31
0.0
  0
LINE
  5
4C8
  8
_0-4_
  6
CONTINUOUS
 62
     3
 10
16000.0
 20
4700.0
 30
0.0
 11
24000.0
 21
4700.0
 31
0.0
  0
LINE
  5
4C9
  8
_0-1_
  6
CONTINUOUS
 62
     4
 10
23110.6483073993695143
 20
7873.2318142473495755
 30
0.0
 11
22630.6483073993695143
 21
7873.2318142473495755
 31
0.0
  0
LINE
  5
4CA
  8
_0-3_
  6
CONTINUOUS
 62
     2
 10
23110.6483073993695143
 20
10873.2318142473504849
 30
0.0
 11
23430.6483073993695143
 21
10873.2318142473504849
 31
0.0
  0
LINE
  5
4CB
  8
_0-3_
  6
CONTINUOUS
 62
     2
 10
23430.6483073993695143
 20
7793.2318142473523039
 30
0.0
 11
23370.6483073993695143
 21
7793.2318142473523039
 31
0.0
  0
LINE
  5
4CC
  8
_0-3_
  6
CONTINUOUS
 62
     2
 10
23430.6483073993695143
 20
10873.2318142473504849
 30
0.0
 11
23430.6483073993695143
 21
7793.2318142473523039
 31
0.0
  0
LINE
  5
4CD
  8
_0-1_
  6
CONTINUOUS
 62
     4
 10
22630.6483073993695143
 20
7873.2318142473495755
 30
0.0
 11
22630.6483073993695143
 21
10873.2318142473504849
 31
0.0
  0
LINE
  5
4CE
  8
_0-1_
  6
CONTINUOUS
 62
     4
 10
23110.6483073993695143
 20
10873.2318142473504849
 30
0.0
 11
22630.6483073993695143
 21
10873.2318142473504849
 31
0.0
  0
LINE
  5
4CF
  8
_0-3_
  6
CONTINUOUS
 62
     2
 10
23110.6483073993695143
 20
7273.2318142473495755
 30
0.0
 11
23110.6483073993695143
 21
10873.2318142473504849
 31
0.0
  0
LINE
  5
4D0
  8
_0-3_
  6
CONTINUOUS
 62
     2
 10
23370.6483073993695143
 20
7273.2318142473495755
 30
0.0
 11
23110.6483073993695143
 21
7273.2318142473495755
 31
0.0
  0
LINE
  5
4D1
  8
_0-3_
  6
CONTINUOUS
 62
     2
 10
23370.6483073993695143
 20
7793.2318142473523039
 30
0.0
 11
23370.6483073993695143
 21
7273.2318142473495755
 31
0.0
  0
LINE
  5
4D2
  8
_0-1_
  6
CONTINUOUS
 62
     4
 10
23110.6483073993695143
 20
10873.2318142473504849
 30
0.0
 11
22630.6483073993695143
 21
7873.2318142473495755
 31
0.0
  0
LINE
  5
4D3
  8
_0-1_
  6
CONTINUOUS
 62
     4
 10
17734.116681121809961
 20
5933.2894984521262813
 30
0.0
 11
19834.116681121809961
 21
5933.2894984521262813
 31
0.0
  0
LINE
  5
4D4
  8
_0-1_
  6
CONTINUOUS
 62
     4
 10
19834.116681121809961
 20
8033.2894984521253718
 30
0.0
 11
17734.116681121809961
 21
8033.2894984521253718
 31
0.0
  0
LINE
  5
4D5
  8
_0-1_
  6
CONTINUOUS
 62
     4
 10
17734.116681121809961
 20
5933.2894984521262813
 30
0.0
 11
19834.116681121809961
 21
8033.2894984521253718
 31
0.0
  0
LINE
  5
4D6
  8
_0-1_
  6
CONTINUOUS
 62
     4
 10
19834.116681121809961
 20
5933.2894984521262813
 30
0.0
 11
17734.116681121809961
 21
8033.2894984521253718
 31
0.0
  0
LINE
  5
4D7
  8
_0-1_
  6
CONTINUOUS
 62
     4
 10
17734.116681121809961
 20
7813.2894984521253718
 30
0.0
 11
16000.0
 21
7119.6428260034008417
 31
0.0
  0
LINE
  5
4D8
  8
_0-1_
  6
CONTINUOUS
 62
     4
 10
19834.116681121809961
 20
8033.2894984521253718
 30
0.0
 11
19834.116681121809961
 21
4700.0
 31
0.0
  0
LINE
  5
4D9
  8
_0-1_
  6
CONTINUOUS
 62
     4
 10
17734.116681121809961
 20
8033.2894984521253718
 30
0.0
 11
17734.116681121809961
 21
4700.0
 31
0.0
  0
LINE
  5
4DA
  8
_0-1_
  6
CONTINUOUS
 62
     4
 10
16000.0
 20
8088.9724912876126837
 30
0.0
 11
22630.6483073993695143
 21
10741.2318142473504849
 31
0.0
  0
LINE
  5
4DB
  8
_0-1_
  6
CONTINUOUS
 62
     4
 10
18284.116681121809961
 20
8033.2894984521253718
 30
0.0
 11
22630.6483073993695143
 21
9771.9021489631504664
 31
0.0
  0
LINE
  5
4DC
  8
_0-1_
  6
CONTINUOUS
 62
     4
 10
20194.116681121809961
 20
6465.1070744787939475
 30
0.0
 11
20194.116681121809961
 21
4700.0
 31
0.0
  0
LINE
  5
4DD
  8
_0-2_
  6
DASHED1
 62
     7
 10
19854.116681121809961
 20
8033.2894984521253718
 30
0.0
 11
19854.116681121809961
 21
4700.0
 31
0.0
  0
LINE
  5
4DE
  8
_0-3_
  6
CONTINUOUS
 62
     2
 10
20194.116681121809961
 20
6448.1312529938813896
 30
0.0
 11
23110.6483073993695143
 21
7614.7439035048955702
 31
0.0
  0
LINE
  5
4DF
  8
_0-1_
  6
CONTINUOUS
 62
     4
 10
20194.116681121809961
 20
6706.6191637363363043
 30
0.0
 11
23110.6483073993695143
 21
7873.2318142473495755
 31
0.0
  0
LINE
  5
4E0
  8
_0-1_
  6
CONTINUOUS
 62
     4
 10
20194.116681121809961
 20
6448.1312529938813896
 30
0.0
 11
20194.116681121809961
 21
6706.6191637363363043
 31
0.0
  0
LINE
  5
4E1
  8
_0-3_
  6
CONTINUOUS
 62
     2
 10
20514.116681121809961
 20
4700.0
 30
0.0
 11
20514.116681121809961
 21
6576.1312529938813896
 31
0.0
  0
LINE
  5
4E2
  8
_0-4_
  6
CONTINUOUS
 62
     3
 10
23770.6483073993695143
 20
9299.556065420692903
 30
0.0
 11
23470.6483073993695143
 21
9299.556065420692903
 31
0.0
  0
LINE
  5
4E3
  8
_0-1_
  6
CONTINUOUS
 62
     4
 10
23730.6483073993695143
 20
9319.556065420692903
 30
0.0
 11
23430.6483073993695143
 21
9319.556065420692903
 31
0.0
  0
LINE
  5
4E4
  8
_0-1_
  6
CONTINUOUS
 62
     4
 10
23730.6483073993695143
 20
11119.556065420689265
 30
0.0
 11
23730.6483073993695143
 21
9319.556065420692903
 31
0.0
  0
LINE
  5
4E5
  8
_0-1_
  6
CONTINUOUS
 62
     4
 10
23430.6483073993695143
 20
10873.2318142473504849
 30
0.0
 11
23430.6483073993695143
 21
11119.556065420689265
 31
0.0
  0
LINE
  5
4E6
  8
_0-1_
  6
CONTINUOUS
 62
     4
 10
23730.6483073993695143
 20
11119.556065420689265
 30
0.0
 11
23430.6483073993695143
 21
11119.556065420689265
 31
0.0
  0
LINE
  5
4E7
  8
_0-1_
  6
CONTINUOUS
 62
     4
 10
23730.6483073993695143
 20
11119.556065420689265
 30
0.0
 11
23430.6483073993695143
 21
9319.556065420692903
 31
0.0
  0
LINE
  5
4E8
  8
_0-0_
  6
CENTER1
 62
     4
 10
18784.116681121809961
 20
4700.0
 30
0.0
 11
18784.116681121809961
 21
14400.0
 31
0.0
  0
LINE
  5
4E9
  8
_0-4_
  6
CONTINUOUS
 62
     3
 10
16000.0
 20
14700.0
 30
0.0
 11
24000.0
 21
14700.0
 31
0.0
  0
LINE
  5
4EA
  8
_0-4_
  6
CONTINUOUS
 62
     3
 10
16000.0
 20
14400.0
 30
0.0
 11
24000.0
 21
14400.0
 31
0.0
  0
LINE
  5
4EB
  8
_0-4_
  6
CONTINUOUS
 62
     3
 10
18000.0
 20
14700.0
 30
0.0
 11
18000.0
 21
14400.0
 31
0.0
  0
LINE
  5
4EC
  8
_0-4_
  6
CONTINUOUS
 62
     3
 10
20000.0
 20
14700.0
 30
0.0
 11
20000.0
 21
14400.0
 31
0.0
  0
TEXT
  5
4ED
  8
_0-1_
 62
     4
 10
16257.3602414003507874
 20
14450.0
 30
0.0
 40
200.0
  1
ニューテッペン
  0
TEXT
  5
4EE
  8
_0-1_
 62
     4
 10
18157.3602414003617014
 20
14450.0
 30
0.0
 40
200.0
  1
片流れコロニアル
  0
TEXT
  5
4EF
  8
_0-1_
 62
     4
 10
23233.8546117924015562
 20
14450.0
 30
0.0
 40
200.0
  1
S=1/5
  0
LINE
  5
4F0
  8
_0-4_
  6
CONTINUOUS
 62
     3
 10
16000.0
 20
14700.0
 30
0.0
 11
24000.0
 21
14700.0
 31
0.0
  0
LINE
  5
4F1
  8
_0-4_
  6
CONTINUOUS
 62
     3
 10
23470.6483073993695143
 20
8799.556065420692903
 30
0.0
 11
23450.6483073993695143
 21
8799.556065420692903
 31
0.0
  0
LINE
  5
4F2
  8
_0-4_
  6
CONTINUOUS
 62
     3
 10
23470.6483073993695143
 20
9299.556065420692903
 30
0.0
 11
23470.6483073993695143
 21
8799.556065420692903
 31
0.0
  0
LINE
  5
4F3
  8
_0-4_
  6
CONTINUOUS
 62
     3
 10
23450.6483073993695143
 20
8899.556065420692903
 30
0.0
 11
23450.6483073993695143
 21
8799.556065420692903
 31
0.0
  0
LINE
  5
4F4
  8
_1-A_
  6
CONTINUOUS
 62
     7
 10
3700.0
 20
10181.231814247339571
 30
0.0
 11
3700.0
 21
10381.231814247339571
 31
0.0
  0
LINE
  5
4F5
  8
_1-A_
  6
CONTINUOUS
 62
     7
 10
4299.9999999999918145
 20
10181.231814247339571
 30
0.0
 11
4299.9999999999918145
 21
10381.231814247339571
 31
0.0
  0
CIRCLE
  5
4F6
  8
_1-A_
  6
CONTINUOUS
 62
     5
 10
3700.0
 20
10181.231814247339571
 30
0.0
 40
20.0
  0
CIRCLE
  5
4F7
  8
_1-A_
  6
CONTINUOUS
 62
     5
 10
3700.0
 20
10181.231814247339571
 30
0.0
 40
20.0
  0
CIRCLE
  5
4F8
  8
_1-A_
  6
CONTINUOUS
 62
     5
 10
4299.9999999999918145
 20
10181.231814247339571
 30
0.0
 40
20.0
  0
CIRCLE
  5
4F9
  8
_1-A_
  6
CONTINUOUS
 62
     5
 10
4299.9999999999918145
 20
10181.231814247339571
 30
0.0
 40
20.0
  0
LINE
  5
4FA
  8
_1-A_
  6
CONTINUOUS
 62
     7
 10
11700.0000000000090949
 20
10181.231814247339571
 30
0.0
 11
11700.0000000000090949
 21
10381.231814247339571
 31
0.0
  0
LINE
  5
4FB
  8
_1-A_
  6
CONTINUOUS
 62
     7
 10
12300.0
 20
10181.231814247339571
 30
0.0
 11
12300.0
 21
10381.231814247339571
 31
0.0
  0
CIRCLE
  5
4FC
  8
_1-A_
  6
CONTINUOUS
 62
     5
 10
11700.0000000000090949
 20
10181.231814247339571
 30
0.0
 40
20.0
  0
CIRCLE
  5
4FD
  8
_1-A_
  6
CONTINUOUS
 62
     5
 10
11700.0000000000090949
 20
10181.231814247339571
 30
0.0
 40
20.0
  0
CIRCLE
  5
4FE
  8
_1-A_
  6
CONTINUOUS
 62
     5
 10
12300.0
 20
10181.231814247339571
 30
0.0
 40
20.0
  0
CIRCLE
  5
4FF
  8
_1-A_
  6
CONTINUOUS
 62
     5
 10
12300.0
 20
10181.231814247339571
 30
0.0
 40
20.0
  0
LINE
  5
500
  8
_0-1_
  6
CONTINUOUS
 62
     4
 10
21955.8192068973294226
 20
10729.7880847889900906
 30
0.0
 11
22044.952969222318643
 21
10506.9536789765297726
 31
0.0
  0
LINE
  5
501
  8
_0-1_
  6
CONTINUOUS
 62
     4
 10
21955.8192068973294226
 20
10729.7880847889900906
 30
0.0
 11
22044.952969222318643
 21
10506.9536789765206777
 31
0.0
  0
LINE
  5
502
  8
_0-3_
  6
CONTINUOUS
 62
     2
 10
21948.3913933702388022
 20
10748.3576186067002709
 30
0.0
 11
21874.1132580994199088
 21
10934.0529567837493232
 31
0.0
  0
LINE
  5
503
  8
_0-4_
  6
CONTINUOUS
 62
     3
 10
21980.990106395289331
 20
11041.4256737877203705
 30
0.0
 11
20448.1107026250792842
 21
10428.2739122796301672
 31
0.0
  0
LINE
  5
504
  8
_0-4_
  6
CONTINUOUS
 62
     3
 10
20455.5385161521589907
 20
10409.7043784619309008
 30
0.0
 11
20548.3861852407098922
 21
10446.8434460973403475
 31
0.0
  0
LINE
  5
505
  8
_0-4_
  6
CONTINUOUS
 62
     3
 10
20448.1107026250792842
 20
10428.2739122796301672
 30
0.0
 11
20455.5385161521589907
 21
10409.7043784619309008
 31
0.0
  0
LINE
  5
506
  8
_0-1_
  6
CONTINUOUS
 62
     4
 10
21955.8192068973294226
 20
10729.7880847889791767
 30
0.0
 11
16000.0
 21
8347.4604020300612319
 31
0.0
  0
LINE
  5
507
  8
_0-2_
  6
DASHED1
 62
     7
 10
21948.3913933702388022
 20
10748.357618606680262
 30
0.0
 11
16000.0
 21
8369.001061258613845
 31
0.0
  0
LINE
  5
508
  8
_0-1_
  6
CONTINUOUS
 62
     4
 10
21955.8192068973294226
 20
10729.7880847889900906
 30
0.0
 11
16000.0
 21
8347.460402030055775
 31
0.0
  0
LINE
  5
509
  8
_0-1_
  6
CONTINUOUS
 62
     4
 10
22044.952969222318643
 20
10506.9536789765297726
 30
0.0
 11
16000.0
 21
8088.9724912876126837
 31
0.0
  0
LINE
  5
50A
  8
_0-2_
  6
DASHED1
 62
     7
 10
21948.3913933702388022
 20
10748.357618606689357
 30
0.0
 11
16000.0
 21
8369.0010612585974741
 31
0.0
  0
LINE
  5
50B
  8
_0-3_
  6
CONTINUOUS
 62
     2
 10
21874.1132580994199088
 20
10934.0529567837493232
 30
0.0
 11
16000.0
 21
8584.4076535440162843
 31
0.0
  0
LINE
  5
50C
  8
_0-3_
  6
DASHED3
 62
     4
 10
21911.2523257348402694
 20
10841.2052876952202496
 30
0.0
 11
16000.0
 21
8476.7043574013077887
 31
0.0
  0
LINE
  5
50D
  8
_0-5_
  6
CONTINUOUS
 62
     7
 10
20548.8153871227004856
 20
10490.7458904948198324
 30
0.0
 11
20287.4486222205887316
 21
10903.1750060188805946
 31
0.0
  0
LINE
  5
50E
  8
_0-5_
  6
CONTINUOUS
 62
     7
 10
21809.6890390165208373
 20
10995.0953512523392419
 30
0.0
 11
20548.8153871227004856
 21
10490.7458904948198324
 31
0.0
  0
LINE
  5
50F
  8
_0-5_
  6
CONTINUOUS
 62
     7
 10
20651.2384764516391442
 20
10984.0689700256898504
 30
0.0
 11
20722.6146897500111663
 21
10624.8875892313499207
 31
0.0
  0
LINE
  5
510
  8
_0-5_
  6
CONTINUOUS
 62
     7
 10
21395.2977815501217265
 20
11281.6926920650803368
 30
0.0
 11
21591.3228552267100895
 21
10972.3708554220393125
 31
0.0
  0
LINE
  5
511
  8
_0-5_
  6
CONTINUOUS
 62
     7
 10
20857.7086246917315293
 20
11066.6570293217191647
 30
0.0
 11
21053.7336983683089784
 21
10757.3351926786708646
 31
0.0
  0
LINE
  5
512
  8
_0-5_
  6
CONTINUOUS
 62
     7
 10
21188.8276333100402553
 20
11199.1046327690401085
 30
0.0
 11
21260.2038466084013635
 21
10839.9232519747092738
 31
0.0
  0
LINE
  5
513
  8
_0-5_
  6
CONTINUOUS
 62
     7
 10
20516.1445415099296952
 20
10542.2995299353096925
 30
0.0
 11
21797.7930034667915606
 21
11054.9589147180704458
 31
0.0
  0
LINE
  5
514
  8
_0-5_
  6
CONTINUOUS
 62
     7
 10
20359.3244825686706463
 20
10789.7569992497501516
 30
0.0
 11
20665.5137191113208246
 21
10912.2326938668393268
 31
0.0
  0
LINE
  5
515
  8
_0-5_
  6
CONTINUOUS
 62
     7
 10
20398.5294973039817705
 20
10727.8926319211495866
 30
0.0
 11
20679.788961770998867
 21
10840.3964177079706133
 31
0.0
  0
LINE
  5
516
  8
_0-5_
  6
CONTINUOUS
 62
     7
 10
20437.7345120393001707
 20
10666.0282645925399265
 30
0.0
 11
20694.0642044306805474
 21
10768.5601415490891668
 31
0.0
  0
LINE
  5
517
  8
_0-5_
  6
CONTINUOUS
 62
     7
 10
20476.939526774611295
 20
10604.1638972639393614
 30
0.0
 11
20708.3394470903403999
 21
10696.7238653902204533
 31
0.0
  0
LINE
  5
518
  8
_0-5_
  6
CONTINUOUS
 62
     7
 10
20896.9136394270608434
 20
11004.7926619931204186
 30
0.0
 11
21203.1028759697110218
 21
11127.26835661018049
 31
0.0
  0
LINE
  5
519
  8
_0-5_
  6
CONTINUOUS
 62
     7
 10
21434.5027962854510406
 20
11219.8283247364797717
 30
0.0
 11
21740.692032828090305
 21
11342.3040193535507569
 31
0.0
  0
LINE
  5
51A
  8
_0-5_
  6
CONTINUOUS
 62
     7
 10
20936.1186541623683297
 20
10942.9282946644998447
 30
0.0
 11
21217.3781186293817882
 21
11055.4320804513099574
 31
0.0
  0
LINE
  5
51B
  8
_0-5_
  6
CONTINUOUS
 62
     7
 10
21473.7078110207694408
 20
11157.9639574078591977
 30
0.0
 11
21754.9672754877683474
 21
11270.4677431946602155
 31
0.0
  0
LINE
  5
51C
  8
_0-5_
  6
CONTINUOUS
 62
     7
 10
20975.3236688976903679
 20
10881.0639273359101935
 30
0.0
 11
21231.6533612890598306
 21
10983.5958042924503388
 31
0.0
  0
LINE
  5
51D
  8
_0-5_
  6
CONTINUOUS
 62
     7
 10
21512.912825756080565
 20
11096.0995900792495377
 30
0.0
 11
21769.2425181474391138
 21
11198.6314670358005969
 31
0.0
  0
LINE
  5
51E
  8
_0-5_
  6
CONTINUOUS
 62
     7
 10
21014.5286836330014921
 20
10819.1995600072896195
 30
0.0
 11
21245.928603948730597
 21
10911.7595281335707114
 31
0.0
  0
LINE
  5
51F
  8
_0-5_
  6
CONTINUOUS
 62
     7
 10
21552.1178404913989652
 20
11034.2352227506398776
 30
0.0
 11
21783.5177608071317081
 21
11126.7951908769300644
 31
0.0
  0
LINE
  5
520
  8
_0-5_
  6
CONTINUOUS
 62
     7
 10
21809.6890390165208373
 20
10995.0953512523392419
 30
0.0
 11
21726.4167901684304525
 21
11414.1402955124103755
 31
0.0
  0
LINE
  5
521
  8
_0-4_
  6
CONTINUOUS
 62
     3
 10
21980.990106395289331
 20
11041.4256737877203705
 30
0.0
 11
21958.7066658140392974
 21
11097.1342752408309025
 31
0.0
  0
LINE
  5
522
  8
_0-5_
  6
CONTINUOUS
 62
     7
 10
22330.0973421681592299
 20
11720.2344939979102492
 30
0.0
 11
22352.3807827493983496
 21
11664.5258925447906222
 31
0.0
  0
LINE
  5
523
  8
_0-1_
  6
CONTINUOUS
 62
     4
 10
22255.8192068973294226
 20
11690.523239889580509
 30
0.0
 11
22144.4020039910901687
 21
11969.066247155160454
 31
0.0
  0
LINE
  5
524
  8
_0-5_
  6
CONTINUOUS
 62
     7
 10
20320.1194678333413322
 20
10851.6213665783707256
 30
0.0
 11
22352.3807827493983496
 21
11664.5258925447906222
 31
0.0
  0
LINE
  5
525
  8
_0-1_
  6
CONTINUOUS
 62
     4
 10
20473.143960397628689
 20
11300.5630297177704051
 30
0.0
 11
22144.4020039910901687
 21
11969.066247155160454
 31
0.0
  0
LINE
  5
526
  8
_1-A_
  6
CONTINUOUS
 62
     7
 10
22630.6483073993695143
 20
10181.2318142473504849
 30
0.0
 11
22630.6483073993695143
 21
10381.2318142473504849
 31
0.0
  0
CIRCLE
  5
527
  8
_1-A_
  6
CONTINUOUS
 62
     5
 10
22630.6483073993695143
 20
10181.2318142473504849
 30
0.0
 40
20.0
  0
CIRCLE
  5
528
  8
_1-A_
  6
CONTINUOUS
 62
     5
 10
22630.6483073993695143
 20
10181.2318142473504849
 30
0.0
 40
20.0
  0
LINE
  5
529
  8
_1-A_
  6
CONTINUOUS
 62
     7
 10
22030.6483073993586004
 20
10181.2318142473504849
 30
0.0
 11
22030.6483073993586004
 21
10381.2318142473504849
 31
0.0
  0
CIRCLE
  5
52A
  8
_1-A_
  6
CONTINUOUS
 62
     5
 10
22030.6483073993586004
 20
10181.2318142473504849
 30
0.0
 40
20.0
  0
CIRCLE
  5
52B
  8
_1-A_
  6
CONTINUOUS
 62
     5
 10
22030.6483073993586004
 20
10181.2318142473504849
 30
0.0
 40
20.0
  0
LINE
  5
52C
  8
_1-A_
  6
CONTINUOUS
 62
     7
 10
22030.6483073993586004
 20
10181.2318142473504849
 30
0.0
 11
22630.6483073993695143
 21
10181.2318142473504849
 31
0.0
  0
TEXT
  5
52D
  8
_1-A_
 62
     5
 10
22050.6483073993586004
 20
10181.2318142473504849
 30
0.0
 40
200.0
  1
30程度
  0
LINE
  5
52E
  8
_1-5_
  6
CONTINUOUS
 62
     7
 10
5184.0992658474697237
 20
11107.1004496203095187
 30
0.0
 11
5184.0992658474697237
 21
12646.066001225670334
 31
0.0
  0
LINE
  5
52F
  8
_1-5_
  6
CONTINUOUS
 62
     7
 10
5184.0992658474697237
 20
12646.066001225670334
 30
0.0
 11
5384.0992658474706332
 21
12646.066001225670334
 31
0.0
  0
SOLID
  5
530
  8
_1-5_
  6
CONTINUOUS
 62
     7
 10
5184.0992658474697237
 20
11107.1004496203095187
 30
0.0
 11
5161.9297995831802837
 21
11207.1004496203095187
 31
0.0
 12
5184.0992658474697237
 22
11207.1004496203095187
 32
0.0
 13
5184.0992658474697237
 23
11207.1004496203095187
 33
0.0
  0
LINE
  5
531
  8
_1-5_
  6
CONTINUOUS
 62
     7
 10
5184.0992658474697237
 20
11107.1004496203095187
 30
0.0
 11
5161.9297995831802837
 21
11207.1004496203095187
 31
0.0
  0
LINE
  5
532
  8
_1-5_
  6
CONTINUOUS
 62
     7
 10
5161.9297995831802837
 20
11207.1004496203095187
 30
0.0
 11
5184.0992658474697237
 21
11207.1004496203095187
 31
0.0
  0
LINE
  5
533
  8
_1-5_
  6
CONTINUOUS
 62
     7
 10
5184.0992658474697237
 20
11207.1004496203095187
 30
0.0
 11
5184.0992658474697237
 21
11107.1004496203095187
 31
0.0
  0
TEXT
  5
534
  8
_1-5_
 62
     5
 10
5384.0992658474706332
 20
12546.066001225670334
 30
0.0
 40
200.0
  1
ニューテッペン
  0
LINE
  5
535
  8
_1-5_
  6
CONTINUOUS
 62
     7
 10
11558.6012908644297568
 20
11084.7294705351305311
 30
0.0
 11
11558.6012908644297568
 21
12634.5465537181498803
 31
0.0
  0
LINE
  5
536
  8
_1-5_
  6
CONTINUOUS
 62
     7
 10
11558.6012908644297568
 20
12634.5465537181498803
 30
0.0
 11
11758.6012908644297568
 21
12634.5465537181498803
 31
0.0
  0
SOLID
  5
537
  8
_1-5_
  6
CONTINUOUS
 62
     7
 10
11558.6012908644297568
 20
11084.7294705351305311
 30
0.0
 11
11536.4318246001294028
 21
11184.7294705351196171
 31
0.0
 12
11558.6012908644297568
 22
11184.7294705351196171
 32
0.0
 13
11558.6012908644297568
 23
11184.7294705351196171
 33
0.0
  0
LINE
  5
538
  8
_1-5_
  6
CONTINUOUS
 62
     7
 10
11558.6012908644297568
 20
11084.7294705351305311
 30
0.0
 11
11536.4318246001294028
 21
11184.7294705351196171
 31
0.0
  0
LINE
  5
539
  8
_1-5_
  6
CONTINUOUS
 62
     7
 10
11536.4318246001294028
 20
11184.7294705351196171
 30
0.0
 11
11558.6012908644297568
 21
11184.7294705351196171
 31
0.0
  0
LINE
  5
53A
  8
_1-5_
  6
CONTINUOUS
 62
     7
 10
11558.6012908644297568
 20
11184.7294705351196171
 30
0.0
 11
11558.6012908644297568
 21
11084.7294705351305311
 31
0.0
  0
TEXT
  5
53B
  8
_1-5_
 62
     5
 10
11758.6012908644297568
 20
12534.5465537181498803
 30
0.0
 40
200.0
  1
水返し板金
  0
LINE
  5
53C
  8
_1-5_
  6
CONTINUOUS
 62
     7
 10
13184.0992658474697237
 20
11107.1004496203204326
 30
0.0
 11
13184.0992658474697237
 21
12646.0660012256794289
 31
0.0
  0
LINE
  5
53D
  8
_1-5_
  6
CONTINUOUS
 62
     7
 10
13184.0992658474697237
 20
12646.0660012256794289
 30
0.0
 11
13384.0992658474697237
 21
12646.0660012256794289
 31
0.0
  0
SOLID
  5
53E
  8
_1-5_
  6
CONTINUOUS
 62
     7
 10
13184.0992658474697237
 20
11107.1004496203204326
 30
0.0
 11
13161.9297995831693697
 21
11207.1004496203204326
 31
0.0
 12
13184.0992658474697237
 22
11207.1004496203204326
 32
0.0
 13
13184.0992658474697237
 23
11207.1004496203204326
 33
0.0
  0
LINE
  5
53F
  8
_1-5_
  6
CONTINUOUS
 62
     7
 10
13184.0992658474697237
 20
11107.1004496203204326
 30
0.0
 11
13161.9297995831693697
 21
11207.1004496203204326
 31
0.0
  0
LINE
  5
540
  8
_1-5_
  6
CONTINUOUS
 62
     7
 10
13161.9297995831693697
 20
11207.1004496203204326
 30
0.0
 11
13184.0992658474697237
 21
11207.1004496203204326
 31
0.0
  0
LINE
  5
541
  8
_1-5_
  6
CONTINUOUS
 62
     7
 10
13184.0992658474697237
 20
11207.1004496203204326
 30
0.0
 11
13184.0992658474697237
 21
11107.1004496203204326
 31
0.0
  0
TEXT
  5
542
  8
_1-5_
 62
     5
 10
13384.0992658474697237
 20
12546.0660012256794289
 30
0.0
 40
200.0
  1
ニューテッペン
  0
LINE
  5
543
  8
_1-5_
  6
CONTINUOUS
 62
     7
 10
13870.2978888126908714
 20
10472.2378279003205535
 30
0.0
 11
14369.4471027275994857
 21
11336.7896269589891745
 31
0.0
  0
LINE
  5
544
  8
_1-5_
  6
CONTINUOUS
 62
     7
 10
14369.4471027275994857
 20
11336.7896269589891745
 30
0.0
 11
14569.4471027275994857
 21
11336.7896269589891745
 31
0.0
  0
SOLID
  5
545
  8
_1-5_
  6
CONTINUOUS
 62
     7
 10
13870.2978888126908714
 20
10472.2378279003205535
 30
0.0
 11
13901.0985678394699789
 21
10569.925101410910429
 31
0.0
 12
13920.2978888126908714
 22
10558.8403682787593425
 32
0.0
 13
13920.2978888126908714
 23
10558.8403682787593425
 33
0.0
  0
LINE
  5
546
  8
_1-5_
  6
CONTINUOUS
 62
     7
 10
13870.2978888126908714
 20
10472.2378279003205535
 30
0.0
 11
13901.0985678394699789
 21
10569.925101410910429
 31
0.0
  0
LINE
  5
547
  8
_1-5_
  6
CONTINUOUS
 62
     7
 10
13901.0985678394699789
 20
10569.925101410910429
 30
0.0
 11
13920.2978888126908714
 21
10558.8403682787593425
 31
0.0
  0
LINE
  5
548
  8
_1-5_
  6
CONTINUOUS
 62
     7
 10
13920.2978888126908714
 20
10558.8403682787593425
 30
0.0
 11
13870.2978888126908714
 21
10472.2378279003205535
 31
0.0
  0
TEXT
  5
549
  8
_1-5_
 62
     5
 10
14569.4471027275994857
 20
11236.7896269589891745
 30
0.0
 40
200.0
  1
コーキング
  0
LINE
  5
54A
  8
_1-5_
  6
CONTINUOUS
 62
     7
 10
20455.5385161521589907
 20
10409.7043784619309008
 30
0.0
 11
19915.213931617410708
 21
11345.5740114546697441
 31
0.0
  0
LINE
  5
54B
  8
_1-5_
  6
CONTINUOUS
 62
     7
 10
19915.213931617410708
 20
11345.5740114546697441
 30
0.0
 11
19715.213931617410708
 21
11345.5740114546697441
 31
0.0
  0
SOLID
  5
54C
  8
_1-5_
  6
CONTINUOUS
 62
     7
 10
20455.5385161521589907
 20
10409.7043784619309008
 30
0.0
 11
20424.7378371254017111
 21
10507.3916519725098624
 31
0.0
 12
20405.5385161521699047
 22
10496.3069188403696899
 32
0.0
 13
20405.5385161521699047
 23
10496.3069188403696899
 33
0.0
  0
LINE
  5
54D
  8
_1-5_
  6
CONTINUOUS
 62
     7
 10
20455.5385161521589907
 20
10409.7043784619309008
 30
0.0
 11
20424.7378371254017111
 21
10507.3916519725098624
 31
0.0
  0
LINE
  5
54E
  8
_1-5_
  6
CONTINUOUS
 62
     7
 10
20424.7378371254017111
 20
10507.3916519725098624
 30
0.0
 11
20405.5385161521699047
 21
10496.3069188403696899
 31
0.0
  0
LINE
  5
54F
  8
_1-5_
  6
CONTINUOUS
 62
     7
 10
20405.5385161521699047
 20
10496.3069188403696899
 30
0.0
 11
20455.5385161521589907
 21
10409.7043784619309008
 31
0.0
  0
TEXT
  5
550
  8
_1-5_
 62
     5
 10
18795.213931617410708
 20
11245.5740114546697441
 30
0.0
 40
200.0
  1
コーキング
  0
LINE
  5
551
  8
_1-5_
  6
CONTINUOUS
 62
     7
 10
21077.169908342508279
 20
11073.397605254969676
 30
0.0
 11
21077.169908342508279
 21
12409.5363265989199135
 31
0.0
  0
LINE
  5
552
  8
_1-5_
  6
CONTINUOUS
 62
     7
 10
21077.169908342508279
 20
12409.5363265989199135
 30
0.0
 11
20877.1699083425010031
 21
12409.5363265989199135
 31
0.0
  0
SOLID
  5
553
  8
_1-5_
  6
CONTINUOUS
 62
     7
 10
21077.169908342508279
 20
11073.397605254969676
 30
0.0
 11
21055.000442078220658
 21
11173.397605254969676
 31
0.0
 12
21077.169908342508279
 22
11173.397605254969676
 32
0.0
 13
21077.169908342508279
 23
11173.397605254969676
 33
0.0
  0
LINE
  5
554
  8
_1-5_
  6
CONTINUOUS
 62
     7
 10
21077.169908342508279
 20
11073.397605254969676
 30
0.0
 11
21055.000442078220658
 21
11173.397605254969676
 31
0.0
  0
LINE
  5
555
  8
_1-5_
  6
CONTINUOUS
 62
     7
 10
21055.000442078220658
 20
11173.397605254969676
 30
0.0
 11
21077.169908342508279
 21
11173.397605254969676
 31
0.0
  0
LINE
  5
556
  8
_1-5_
  6
CONTINUOUS
 62
     7
 10
21077.169908342508279
 20
11173.397605254969676
 30
0.0
 11
21077.169908342508279
 21
11073.397605254969676
 31
0.0
  0
TEXT
  5
557
  8
_1-5_
 62
     5
 10
19597.1699083425010031
 20
12309.5363265989199135
 30
0.0
 40
200.0
  1
ニューテッペン
  0
LINE
  5
558
  8
_1-5_
  6
CONTINUOUS
 62
     7
 10
21905.8044473222907982
 20
11011.3514101585096796
 30
0.0
 11
21905.8044473222907982
 21
12783.3113587905008899
 31
0.0
  0
LINE
  5
559
  8
_1-5_
  6
CONTINUOUS
 62
     7
 10
21905.8044473222907982
 20
12783.3113587905008899
 30
0.0
 11
21705.8044473222798842
 21
12783.3113587905008899
 31
0.0
  0
SOLID
  5
55A
  8
_1-5_
  6
CONTINUOUS
 62
     7
 10
21905.8044473222907982
 20
11011.3514101585096796
 30
0.0
 11
21883.6349810579886253
 21
11111.3514101585096796
 31
0.0
 12
21905.8044473222907982
 22
11111.3514101585096796
 32
0.0
 13
21905.8044473222907982
 23
11111.3514101585096796
 33
0.0
  0
LINE
  5
55B
  8
_1-5_
  6
CONTINUOUS
 62
     7
 10
21905.8044473222907982
 20
11011.3514101585096796
 30
0.0
 11
21883.6349810579886253
 21
11111.3514101585096796
 31
0.0
  0
LINE
  5
55C
  8
_1-5_
  6
CONTINUOUS
 62
     7
 10
21883.6349810579886253
 20
11111.3514101585096796
 30
0.0
 11
21905.8044473222907982
 21
11111.3514101585096796
 31
0.0
  0
LINE
  5
55D
  8
_1-5_
  6
CONTINUOUS
 62
     7
 10
21905.8044473222907982
 20
11111.3514101585096796
 30
0.0
 11
21905.8044473222907982
 21
11011.3514101585096796
 31
0.0
  0
TEXT
  5
55E
  8
_1-5_
 62
     5
 10
20785.8044473222798842
 20
12683.3113587905008899
 30
0.0
 40
200.0
  1
水返し板金
  0
LINE
  5
55F
  8
_1-5_
  6
CONTINUOUS
 62
     7
 10
3558.60129086443294
 20
11084.7294705351105222
 30
0.0
 11
3558.60129086443294
 21
12634.5465537181407853
 31
0.0
  0
LINE
  5
560
  8
_1-5_
  6
CONTINUOUS
 62
     7
 10
3558.60129086443294
 20
12634.5465537181407853
 30
0.0
 11
3758.60129086443294
 21
12634.5465537181407853
 31
0.0
  0
SOLID
  5
561
  8
_1-5_
  6
CONTINUOUS
 62
     7
 10
3558.60129086443294
 20
11084.7294705351105222
 30
0.0
 11
3536.4318246001430452
 21
11184.7294705351105222
 31
0.0
 12
3558.60129086443294
 22
11184.7294705351105222
 32
0.0
 13
3558.60129086443294
 23
11184.7294705351105222
 33
0.0
  0
LINE
  5
562
  8
_1-5_
  6
CONTINUOUS
 62
     7
 10
3558.60129086443294
 20
11084.7294705351105222
 30
0.0
 11
3536.4318246001430452
 21
11184.7294705351105222
 31
0.0
  0
LINE
  5
563
  8
_1-5_
  6
CONTINUOUS
 62
     7
 10
3536.4318246001430452
 20
11184.7294705351105222
 30
0.0
 11
3558.60129086443294
 21
11184.7294705351105222
 31
0.0
  0
LINE
  5
564
  8
_1-5_
  6
CONTINUOUS
 62
     7
 10
3558.60129086443294
 20
11184.7294705351105222
 30
0.0
 11
3558.60129086443294
 21
11084.7294705351105222
 31
0.0
  0
TEXT
  5
565
  8
_1-5_
 62
     5
 10
3758.60129086443294
 20
12534.5465537181298714
 30
0.0
 40
200.0
  1
水返し板金
  0
LINE
  5
566
  8
_1-5_
  6
CONTINUOUS
 62
     7
 10
5870.2978888127036043
 20
10472.2378279003005446
 30
0.0
 11
6369.4471027276022141
 21
11336.7896269589691656
 31
0.0
  0
LINE
  5
567
  8
_1-5_
  6
CONTINUOUS
 62
     7
 10
6369.4471027276022141
 20
11336.7896269589691656
 30
0.0
 11
6569.4471027276022141
 21
11336.7896269589691656
 31
0.0
  0
SOLID
  5
568
  8
_1-5_
  6
CONTINUOUS
 62
     7
 10
5870.2978888127036043
 20
10472.2378279003005446
 30
0.0
 11
5901.0985678394863498
 21
10569.9251014108904201
 31
0.0
 12
5920.2978888127036043
 22
10558.8403682787502476
 32
0.0
 13
5920.2978888127036043
 23
10558.8403682787502476
 33
0.0
  0
LINE
  5
569
  8
_1-5_
  6
CONTINUOUS
 62
     7
 10
5870.2978888127036043
 20
10472.2378279003005446
 30
0.0
 11
5901.0985678394863498
 21
10569.9251014108904201
 31
0.0
  0
LINE
  5
56A
  8
_1-5_
  6
CONTINUOUS
 62
     7
 10
5901.0985678394863498
 20
10569.9251014108904201
 30
0.0
 11
5920.2978888127036043
 21
10558.8403682787502476
 31
0.0
  0
LINE
  5
56B
  8
_1-5_
  6
CONTINUOUS
 62
     7
 10
5920.2978888127036043
 20
10558.8403682787502476
 30
0.0
 11
5870.2978888127036043
 21
10472.2378279003005446
 31
0.0
  0
TEXT
  5
56C
  8
_1-5_
 62
     5
 10
6569.4471027276022141
 20
11236.7896269589691656
 30
0.0
 40
200.0
  1
コーキング
  0
LINE
  5
56D
  8
_1-5_
  6
CONTINUOUS
 62
     7
 10
12138.253939061129131
 20
8912.8490418622131983
 30
0.0
 11
12428.892123199040725
 21
9416.2491434086405206
 31
0.0
  0
LINE
  5
56E
  8
_1-5_
  6
CONTINUOUS
 62
     7
 10
12428.892123199040725
 20
9416.2491434086405206
 30
0.0
 11
12628.892123199040725
 21
9416.2491434086405206
 31
0.0
  0
SOLID
  5
56F
  8
_1-5_
  6
CONTINUOUS
 62
     7
 10
12138.253939061129131
 20
8912.8490418622131983
 30
0.0
 11
12169.0546180878991436
 21
9010.5363153728030738
 31
0.0
 12
12188.253939061129131
 22
8999.4515822406538064
 32
0.0
 13
12188.253939061129131
 23
8999.4515822406538064
 33
0.0
  0
LINE
  5
570
  8
_1-5_
  6
CONTINUOUS
 62
     7
 10
12138.253939061129131
 20
8912.8490418622131983
 30
0.0
 11
12169.0546180878991436
 21
9010.5363153728030738
 31
0.0
  0
LINE
  5
571
  8
_1-5_
  6
CONTINUOUS
 62
     7
 10
12169.0546180878991436
 20
9010.5363153728030738
 30
0.0
 11
12188.253939061129131
 21
8999.4515822406538064
 31
0.0
  0
LINE
  5
572
  8
_1-5_
  6
CONTINUOUS
 62
     7
 10
12188.253939061129131
 20
8999.4515822406538064
 30
0.0
 11
12138.253939061129131
 21
8912.8490418622131983
 31
0.0
  0
TEXT
  5
573
  8
_1-5_
 62
     5
 10
12628.892123199040725
 20
9316.2491434086405206
 30
0.0
 40
200.0
  1
垂木より一回り小さいもの
  0
LINE
  5
574
  8
_0-4_
  6
CONTINUOUS
 62
     3
 10
4000.0000000000090949
 20
12145.1054277469702356
 30
0.0
 11
6625.7320818235230035
 21
11094.8125950175799517
 31
0.0
  0
LINE
  5
575
  8
_0-4_
  6
CONTINUOUS
 62
     3
 10
6625.7320818235230035
 20
11094.8125950175799517
 30
0.0
 11
6618.3042682964351116
 21
11076.2430611998806853
 31
0.0
  0
LINE
  5
576
  8
_0-4_
  6
CONTINUOUS
 62
     3
 10
6432.6089301193860592
 20
11150.5211964706904837
 30
0.0
 11
6618.3042682964351116
 21
11076.2430611998806853
 31
0.0
  0
LINE
  5
577
  8
_0-1_
  6
CONTINUOUS
 62
     4
 10
6395.4698624839793411
 20
11165.3768235248498968
 30
0.0
 11
4111.4172029062528964
 21
12078.9978873559393833
 31
0.0
  0
LINE
  5
578
  8
_0-1_
  6
CONTINUOUS
 62
     4
 10
6395.4698624839793411
 20
11165.3768235248498968
 30
0.0
 11
6284.0526595777928378
 21
10886.8338162593609013
 31
0.0
  0
LINE
  5
579
  8
_0-1_
  6
CONTINUOUS
 62
     4
 10
6042.6487199476177921
 20
10983.3953921114207333
 30
0.0
 11
6284.0526595777928378
 21
10886.8338162593609013
 31
0.0
  0
LINE
  5
57A
  8
_0-1_
  6
CONTINUOUS
 62
     4
 10
4111.4172029062528964
 20
12078.9978873559393833
 30
0.0
 11
6284.0526595777928378
 21
10886.8338162593609013
 31
0.0
  0
LINE
  5
57B
  8
_0-4_
  6
CONTINUOUS
 62
     3
 10
6287.7665663412972208
 20
10842.2669350967807986
 30
0.0
 11
6306.3361001590010346
 21
10834.8391215696992731
 31
0.0
  0
LINE
  5
57C
  8
_0-4_
  6
CONTINUOUS
 62
     3
 10
6324.9056339767048485
 20
10935.1146041853098723
 30
0.0
 11
6287.7665663412972208
 21
10842.2669350967807986
 31
0.0
  0
LINE
  5
57D
  8
_0-4_
  6
CONTINUOUS
 62
     3
 10
6432.6089301193860592
 20
11150.5211964706904837
 30
0.0
 11
6306.3361001590010346
 21
10834.8391215696992731
 31
0.0
  0
LINE
  5
57E
  8
_0-1_
  6
CONTINUOUS
 62
     4
 10
3888.5827970937612008
 20
12078.9978873559393833
 30
0.0
 11
3999.9999999999918145
 21
11800.4548800903794472
 31
0.0
  0
LINE
  5
57F
  8
_0-1_
  6
CONTINUOUS
 62
     4
 10
4111.4172029062528964
 20
12078.9978873559393833
 30
0.0
 11
4000.0000000000231921
 21
11800.4548800903794472
 31
0.0
  0
LINE
  5
580
  8
_0-4_
  6
CONTINUOUS
 62
     3
 10
4000.0000000000090949
 20
12145.1054277469702356
 30
0.0
 11
1374.2679181764910936
 21
11094.8125950175799517
 31
0.0
  0
LINE
  5
581
  8
_0-4_
  6
CONTINUOUS
 62
     3
 10
1374.2679181764910936
 20
11094.8125950175799517
 30
0.0
 11
1381.6957317035780761
 21
11076.2430611998806853
 31
0.0
  0
LINE
  5
582
  8
_0-4_
  6
CONTINUOUS
 62
     3
 10
1567.3910698806280379
 20
11150.5211964706904837
 30
0.0
 11
1381.6957317035780761
 21
11076.2430611998806853
 31
0.0
  0
LINE
  5
583
  8
_0-1_
  6
CONTINUOUS
 62
     4
 10
1604.5301375160329371
 20
11165.3768235248498968
 30
0.0
 11
3888.5827970937612008
 21
12078.9978873559393833
 31
0.0
  0
LINE
  5
584
  8
_0-1_
  6
CONTINUOUS
 62
     4
 10
1604.5301375160329371
 20
11165.3768235248498968
 30
0.0
 11
1715.9473404222239878
 21
10886.8338162593609013
 31
0.0
  0
LINE
  5
585
  8
_0-1_
  6
CONTINUOUS
 62
     4
 10
1957.3512800523960777
 20
10983.3953921114207333
 30
0.0
 11
1715.9473404222239878
 21
10886.8338162593609013
 31
0.0
  0
LINE
  5
586
  8
_0-1_
  6
CONTINUOUS
 62
     4
 10
3888.5827970937612008
 20
12078.9978873559393833
 30
0.0
 11
1715.9473404222239878
 21
10886.8338162593609013
 31
0.0
  0
LINE
  5
587
  8
_0-4_
  6
CONTINUOUS
 62
     3
 10
1712.2334336587159669
 20
10842.2669350967807986
 30
0.0
 11
1693.6638998410130625
 21
10834.8391215696992731
 31
0.0
  0
LINE
  5
588
  8
_0-4_
  6
CONTINUOUS
 62
     3
 10
1675.0943660233099308
 20
10935.1146041853098723
 30
0.0
 11
1712.2334336587159669
 21
10842.2669350967807986
 31
0.0
  0
LINE
  5
589
  8
_0-4_
  6
CONTINUOUS
 62
     3
 10
1567.3910698806280379
 20
11150.5211964706904837
 30
0.0
 11
1693.6638998410130625
 21
10834.8391215696992731
 31
0.0
  0
LINE
  5
58A
  8
_0-4_
  6
CONTINUOUS
 62
     3
 10
11999.9999999999799911
 20
12145.1054277469793305
 30
0.0
 11
9374.267918176468811
 21
11094.8125950175908656
 31
0.0
  0
LINE
  5
58B
  8
_0-4_
  6
CONTINUOUS
 62
     3
 10
9374.267918176468811
 20
11094.8125950175999606
 30
0.0
 11
9381.6957317035557935
 21
11076.2430611998897803
 31
0.0
  0
LINE
  5
58C
  8
_0-4_
  6
CONTINUOUS
 62
     3
 10
9567.3910698806012078
 20
11150.5211964707104926
 30
0.0
 11
9381.6957317035557935
 21
11076.2430611998897803
 31
0.0
  0
LINE
  5
58D
  8
_0-1_
  6
CONTINUOUS
 62
     4
 10
9604.5301375160033786
 20
11165.3768235248699057
 30
0.0
 11
11888.5827970937407372
 21
12078.9978873559502972
 31
0.0
  0
LINE
  5
58E
  8
_0-1_
  6
CONTINUOUS
 62
     4
 10
9604.5301375160033786
 20
11165.3768235248699057
 30
0.0
 11
9715.9473404221917008
 21
10886.8338162593790912
 31
0.0
  0
LINE
  5
58F
  8
_0-1_
  6
CONTINUOUS
 62
     4
 10
9957.351280052376751
 20
10983.3953921114298282
 30
0.0
 11
9715.9473404221917008
 21
10886.8338162593790912
 31
0.0
  0
LINE
  5
590
  8
_0-1_
  6
CONTINUOUS
 62
     4
 10
11888.5827970937407372
 20
12078.9978873559502972
 30
0.0
 11
9715.9473404221917008
 21
10886.8338162593790912
 31
0.0
  0
LINE
  5
591
  8
_0-4_
  6
CONTINUOUS
 62
     3
 10
9712.2334336586918653
 20
10842.2669350968008075
 30
0.0
 11
9693.6638998409925989
 21
10834.839121569719282
 31
0.0
  0
LINE
  5
592
  8
_0-4_
  6
CONTINUOUS
 62
     3
 10
9675.0943660232915136
 20
10935.1146041853207862
 30
0.0
 11
9712.2334336586918653
 21
10842.2669350968008075
 31
0.0
  0
LINE
  5
593
  8
_0-4_
  6
CONTINUOUS
 62
     3
 10
9567.3910698806012078
 20
11150.5211964707104926
 30
0.0
 11
9693.6638998409925989
 21
10834.839121569719282
 31
0.0
  0
LINE
  5
594
  8
_0-4_
  6
CONTINUOUS
 62
     3
 10
11999.9999999999799911
 20
12145.1054277469793305
 30
0.0
 11
14625.7320818235002662
 21
11094.8125950175908656
 31
0.0
  0
LINE
  5
595
  8
_0-4_
  6
CONTINUOUS
 62
     3
 10
14625.7320818235002662
 20
11094.8125950175999606
 30
0.0
 11
14618.3042682964096457
 21
11076.2430611998897803
 31
0.0
  0
LINE
  5
596
  8
_0-4_
  6
CONTINUOUS
 62
     3
 10
14432.6089301193696883
 20
11150.5211964707104926
 30
0.0
 11
14618.3042682964096457
 21
11076.2430611998897803
 31
0.0
  0
LINE
  5
597
  8
_0-1_
  6
CONTINUOUS
 62
     4
 10
14395.4698624839602417
 20
11165.3768235248699057
 30
0.0
 11
12111.417202906230159
 21
12078.9978873559502972
 31
0.0
  0
LINE
  5
598
  8
_0-1_
  6
CONTINUOUS
 62
     4
 10
14395.4698624839602417
 20
11165.3768235248699057
 30
0.0
 11
14284.0526595777701004
 21
10886.8338162593790912
 31
0.0
  0
LINE
  5
599
  8
_0-1_
  6
CONTINUOUS
 62
     4
 10
14042.6487199475905072
 20
10983.3953921114298282
 30
0.0
 11
14284.0526595777701004
 21
10886.8338162593790912
 31
0.0
  0
LINE
  5
59A
  8
_0-1_
  6
CONTINUOUS
 62
     4
 10
12111.417202906230159
 20
12078.9978873559502972
 30
0.0
 11
14284.0526595777701004
 21
10886.8338162593790912
 31
0.0
  0
LINE
  5
59B
  8
_0-4_
  6
CONTINUOUS
 62
     3
 10
14287.7665663412808499
 20
10842.2669350968008075
 30
0.0
 11
14306.3361001589692023
 21
10834.839121569719282
 31
0.0
  0
LINE
  5
59C
  8
_0-4_
  6
CONTINUOUS
 62
     3
 10
14324.9056339766793826
 20
10935.1146041853207862
 30
0.0
 11
14287.7665663412808499
 21
10842.2669350968008075
 31
0.0
  0
LINE
  5
59D
  8
_0-4_
  6
CONTINUOUS
 62
     3
 10
14432.6089301193696883
 20
11150.5211964707104926
 30
0.0
 11
14306.3361001589692023
 21
10834.839121569719282
 31
0.0
  0
LINE
  5
59E
  8
_0-1_
  6
CONTINUOUS
 62
     4
 10
11888.5827970937407372
 20
12078.9978873559502972
 30
0.0
 11
12000.0
 21
11800.4548800903903611
 31
0.0
  0
LINE
  5
59F
  8
_0-1_
  6
CONTINUOUS
 62
     4
 10
12111.417202906230159
 20
12078.9978873559502972
 30
0.0
 11
11999.9999999999708962
 21
11800.4548800903903611
 31
0.0
  0
LINE
  5
5A0
  8
_0-1_
  6
CONTINUOUS
 62
     4
 10
19870.8513887455301301
 20
11059.6460010569207952
 30
0.0
 11
21542.1094323390097998
 21
11728.1492184943108441
 31
0.0
  0
LINE
  5
5A1
  8
_0-1_
  6
CONTINUOUS
 62
     4
 10
19982.268591651769384
 20
10781.1029937913499452
 30
0.0
 11
19870.8513887455301301
 21
11059.6460010569207952
 31
0.0
  0
LINE
  5
5A2
  8
_0-4_
  6
CONTINUOUS
 62
     3
 10
19993.4103119423816679
 20
10699.3970449934404314
 30
0.0
 11
20011.9798457600882102
 21
10706.824858520520138
 31
0.0
  0
LINE
  5
5A3
  8
_0-4_
  6
CONTINUOUS
 62
     3
 10
20011.9798457600882102
 20
10706.824858520520138
 30
0.0
 11
19974.8407781246787636
 21
10799.6725276090601255
 31
0.0
  0
LINE
  5
5A4
  8
_0-4_
  6
CONTINUOUS
 62
     3
 10
19844.8540414007402433
 20
11070.78772134754945
 30
0.0
 11
19659.1587032237002859
 21
10996.5095860767305567
 31
0.0
  0
LINE
  5
5A5
  8
_0-4_
  6
CONTINUOUS
 62
     3
 10
19659.1587032237002859
 20
10996.5095860767305567
 30
0.0
 11
19659.1587032237002859
 21
10976.5095860767305567
 31
0.0
  0
LINE
  5
5A6
  8
_0-4_
  6
CONTINUOUS
 62
     3
 10
19659.1587032237002859
 20
10976.5095860767305567
 30
0.0
 11
19851.7505931248706474
 21
11053.5463420371997927
 31
0.0
  0
LINE
  5
5A7
  8
_0-4_
  6
CONTINUOUS
 62
     3
 10
19993.4103119423816679
 20
10699.3970449934404314
 30
0.0
 11
19851.7505931248706474
 21
11053.5463420371997927
 31
0.0
  0
LINE
  5
5A8
  8
_0-5_
  6
CONTINUOUS
 62
     7
 10
20287.4486222205887316
 20
10903.1750060188805946
 30
0.0
 11
22330.0973421681592299
 21
11720.2344939979102492
 31
0.0
  0
LINE
  5
5A9
  8
_0-1_
  6
CONTINUOUS
 62
     4
 10
19982.268591651769384
 20
10781.1029937913499452
 30
0.0
 11
20287.4486222205887316
 21
10903.1750060188805946
 31
0.0
  0
LINE
  5
5AA
  8
_0-1_
  6
CONTINUOUS
 62
     4
 10
22144.4020039910901687
 20
11969.066247155160454
 30
0.0
 11
19982.268591651769384
 21
10781.1029937913499452
 31
0.0
  0
LINE
  5
5AB
  8
_0-4_
  6
CONTINUOUS
 62
     3
 10
19844.8540414007402433
 20
11070.78772134754945
 30
0.0
 11
23770.6483073993695143
 21
12641.1054277469993394
 31
0.0
  0
LINE
  5
5AC
  8
_0-4_
  6
CONTINUOUS
 62
     3
 10
23770.6483073993695143
 20
12641.1054277469993394
 30
0.0
 11
23770.6483073993695143
 21
9299.556065420692903
 31
0.0
  0
LINE
  5
5AD
  8
_0-4_
  6
CONTINUOUS
 62
     3
 10
24000.0
 20
4700.0
 30
0.0
 11
24000.0
 21
14700.0
 31
0.0
  0
LINE
  5
5AE
  8
_0-4_
  6
CONTINUOUS
 62
     3
 10
24000.0
 20
14700.0
 30
0.0
 11
32000.0
 21
14700.0
 31
0.0
  0
LINE
  5
5AF
  8
_0-4_
  6
CONTINUOUS
 62
     3
 10
32000.0
 20
14700.0
 30
0.0
 11
40000.0
 21
14700.0
 31
0.0
  0
LINE
  5
5B0
  8
_0-4_
  6
CONTINUOUS
 62
     3
 10
40000.0
 20
14700.0
 30
0.0
 11
48000.0
 21
14700.0
 31
0.0
  0
TEXT
  5
5B1
  8
_0-1_
 62
     4
 10
2457.3602414003548802
 20
14450.0
 30
0.0
 40
200.0
  1
コロニアル
  0
TEXT
  5
5B2
  8
_0-1_
 62
     4
 10
4557.3602414003544254
 20
14450.0
 30
0.0
 40
200.0
  1
笠木：大
  0
TEXT
  5
5B3
  8
_0-1_
 62
     4
 10
12557.3602414003507874
 20
14450.0
 30
0.0
 40
200.0
  1
笠木：大
  0
TEXT
  5
5B4
  8
_0-1_
 62
     4
 10
20557.3602414003617014
 20
14450.0
 30
0.0
 40
200.0
  1
笠木：大
  0
LINE
  5
5B5
  8
_0-4_
  6
CONTINUOUS
 62
     3
 10
0.0
 20
14700.0
 30
0.0
 11
0.0
 21
4700.0
 31
0.0
  0
LINE
  5
5B6
  8
_0-4_
  6
CONTINUOUS
 62
     3
 10
40000.0
 20
4700.0
 30
0.0
 11
40000.0
 21
14700.0
 31
0.0
  0
LINE
  5
5B7
  8
_0-4_
  6
CONTINUOUS
 62
     3
 10
32000.0
 20
4700.0
 30
0.0
 11
40000.0
 21
4700.0
 31
0.0
  0
LINE
  5
5B8
  8
_0-1_
  6
CONTINUOUS
 62
     4
 10
34950.0
 20
7625.7680820199893788
 30
0.0
 11
37050.0
 21
7625.7680820199893788
 31
0.0
  0
LINE
  5
5B9
  8
_0-1_
  6
CONTINUOUS
 62
     4
 10
34950.0
 20
7625.7680820199893788
 30
0.0
 11
34950.0
 21
9725.7680820199893788
 31
0.0
  0
LINE
  5
5BA
  8
_0-1_
  6
CONTINUOUS
 62
     4
 10
34950.0
 20
9725.7680820199893788
 30
0.0
 11
37050.0
 21
9725.7680820199893788
 31
0.0
  0
LINE
  5
5BB
  8
_0-1_
  6
CONTINUOUS
 62
     4
 10
37050.0
 20
7625.7680820199893788
 30
0.0
 11
37050.0
 21
9725.7680820199893788
 31
0.0
  0
LINE
  5
5BC
  8
_0-1_
  6
CONTINUOUS
 62
     4
 10
37050.0
 20
9725.7680820199893788
 30
0.0
 11
34950.0
 21
7625.7680820199893788
 31
0.0
  0
LINE
  5
5BD
  8
_0-1_
  6
CONTINUOUS
 62
     4
 10
37050.0
 20
7625.7680820199893788
 30
0.0
 11
34950.0
 21
9725.7680820199893788
 31
0.0
  0
LINE
  5
5BE
  8
_0-2_
  6
DASHED1
 62
     7
 10
36396.561575852058013
 20
11016.5016869343708095
 30
0.0
 11
40000.0
 21
9575.1263172751914681
 31
0.0
  0
LINE
  5
5BF
  8
_0-1_
  6
CONTINUOUS
 62
     4
 10
36389.1337623249783064
 20
10997.9321531166606292
 30
0.0
 11
40000.0
 21
9553.5856580466570449
 31
0.0
  0
LINE
  5
5C0
  8
_0-1_
  6
CONTINUOUS
 62
     4
 10
36000.0
 20
10895.0977473042003112
 30
0.0
 11
40000.0
 21
9295.0977473042003112
 31
0.0
  0
LINE
  5
5C1
  8
_0-3_
  6
CONTINUOUS
 62
     2
 10
40000.0
 20
9596.6669765037277102
 30
0.0
 11
36320.9956364785321057
 21
11068.2687219123108662
 31
0.0
  0
LINE
  5
5C2
  8
_0-1_
  6
CONTINUOUS
 62
     4
 10
35700.0
 20
10775.0977473042003112
 30
0.0
 11
35610.8662376750071417
 21
10997.9321531166606292
 31
0.0
  0
LINE
  5
5C3
  8
_0-2_
  6
DASHED1
 62
     7
 10
35603.4384241479274351
 20
11016.5016869343708095
 30
0.0
 11
31999.9999999999890861
 21
9575.1263172751914681
 31
0.0
  0
LINE
  5
5C4
  8
_0-1_
  6
CONTINUOUS
 62
     4
 10
35610.8662376750071417
 20
10997.9321531166606292
 30
0.0
 11
31999.9999999999890861
 21
9553.5856580466570449
 31
0.0
  0
LINE
  5
5C5
  8
_0-1_
  6
CONTINUOUS
 62
     4
 10
36000.0
 20
10895.0977473042003112
 30
0.0
 11
31999.9999999999890861
 21
9295.0977473042003112
 31
0.0
  0
LINE
  5
5C6
  8
_0-3_
  6
CONTINUOUS
 62
     2
 10
31999.9999999999890861
 20
9596.6669765037277102
 30
0.0
 11
35679.0043635214533424
 21
11068.2687219123108662
 31
0.0
  0
LINE
  5
5C7
  8
_0-3_
  6
CONTINUOUS
 62
     4
 10
40000.0
 20
10350.5900495025507553
 30
0.0
 11
36302.4261026608219254
 21
11829.6196084382208937
 31
0.0
  0
LINE
  5
5C8
  8
_0-1_
  6
CONTINUOUS
 62
     4
 10
36300.0
 20
10775.0977473042003112
 30
0.0
 11
36389.1337623249783064
 21
10997.9321531166606292
 31
0.0
  0
LINE
  5
5C9
  8
_0-5_
  6
CONTINUOUS
 62
     7
 10
37472.3887174764095107
 20
12180.1796131964401866
 30
0.0
 11
37276.3636437998211477
 21
11870.8577765533900674
 31
0.0
  0
LINE
  5
5CA
  8
_0-5_
  6
CONTINUOUS
 62
     7
 10
37781.2819550454369164
 20
11604.2684743695299403
 30
0.0
 11
38042.6487199475523084
 21
12016.6975898935997975
 31
0.0
  0
LINE
  5
5CB
  8
_0-5_
  6
CONTINUOUS
 62
     7
 10
36520.4083031516202027
 20
12108.6179351270602638
 30
0.0
 11
37781.2819550454369164
 21
11604.2684743695299403
 31
0.0
  0
LINE
  5
5CC
  8
_0-5_
  6
CONTINUOUS
 62
     7
 10
37678.8588657165018958
 20
12097.5915539004108723
 30
0.0
 11
37607.4826524181335117
 21
11738.4101731060691236
 31
0.0
  0
LINE
  5
5CD
  8
_0-5_
  6
CONTINUOUS
 62
     7
 10
36934.7995606180193136
 20
12395.2152759397995396
 30
0.0
 11
36738.7744869414309505
 21
12085.8934392967494205
 31
0.0
  0
LINE
  5
5CE
  8
_0-5_
  6
CONTINUOUS
 62
     7
 10
37141.2697088580971467
 20
12312.6272166437593114
 30
0.0
 11
37069.8934955597433145
 21
11953.4458358494302956
 31
0.0
  0
LINE
  5
5CF
  8
_0-5_
  6
CONTINUOUS
 62
     7
 10
37813.9528006582113449
 20
11655.8221138100398093
 30
0.0
 11
36532.3043387013603933
 21
12168.4814985927896487
 31
0.0
  0
LINE
  5
5D0
  8
_0-5_
  6
CONTINUOUS
 62
     7
 10
37970.7728595994703937
 20
11903.2795831244802685
 30
0.0
 11
37664.5836230568165774
 21
12025.7552777415403398
 31
0.0
  0
LINE
  5
5D1
  8
_0-5_
  6
CONTINUOUS
 62
     7
 10
37931.5678448641629075
 20
11841.4152157958706084
 30
0.0
 11
37650.308380397153087
 21
11953.9190015826698072
 31
0.0
  0
LINE
  5
5D2
  8
_0-5_
  6
CONTINUOUS
 62
     7
 10
37892.3628301288408693
 20
11779.5508484672591294
 30
0.0
 11
37636.0331377374677686
 21
11882.0827254238101887
 31
0.0
  0
LINE
  5
5D3
  8
_0-5_
  6
CONTINUOUS
 62
     7
 10
37853.157815393533383
 20
11717.6864811386494694
 30
0.0
 11
37621.7578950777970022
 21
11810.2464492649396561
 31
0.0
  0
LINE
  5
5D4
  8
_0-5_
  6
CONTINUOUS
 62
     7
 10
37433.1837027410801966
 20
12118.3152458678396215
 30
0.0
 11
37126.9944661984263803
 21
12240.7909404848996928
 31
0.0
  0
LINE
  5
5D5
  8
_0-5_
  6
CONTINUOUS
 62
     7
 10
36895.5945458826827235
 20
12333.3509086112007935
 30
0.0
 11
36589.4053093400434591
 21
12455.8266032282499509
 31
0.0
  0
LINE
  5
5D6
  8
_0-5_
  6
CONTINUOUS
 62
     7
 10
37393.9786880057727103
 20
12056.4508785392299615
 30
0.0
 11
37112.7192235387628898
 21
12168.9546643260291603
 31
0.0
  0
LINE
  5
5D7
  8
_0-5_
  6
CONTINUOUS
 62
     7
 10
36856.3895311473825132
 20
12271.4865412825802196
 30
0.0
 11
36575.1300666803726926
 21
12383.9903270693794184
 31
0.0
  0
LINE
  5
5D8
  8
_0-5_
  6
CONTINUOUS
 62
     7
 10
37354.7736732704506721
 20
11994.5865112106203014
 30
0.0
 11
37098.4439808790921234
 21
12097.1183881671604468
 31
0.0
  0
LINE
  5
5D9
  8
_0-5_
  6
CONTINUOUS
 62
     7
 10
36817.184516412060475
 20
12209.6221739539596456
 30
0.0
 11
36560.8548240207019262
 21
12312.1540509105107049
 31
0.0
  0
LINE
  5
5DA
  8
_0-5_
  6
CONTINUOUS
 62
     7
 10
37315.5686585351431859
 20
11932.7221438819997275
 30
0.0
 11
37084.168738219406805
 21
12025.2821120083008282
 31
0.0
  0
LINE
  5
5DB
  8
_0-5_
  6
CONTINUOUS
 62
     7
 10
36777.9795016767529887
 20
12147.7578066253608995
 30
0.0
 11
36546.5795813610166078
 21
12240.3177747516492673
 31
0.0
  0
LINE
  5
5DC
  8
_0-5_
  6
CONTINUOUS
 62
     7
 10
36520.4083031516202027
 20
12108.6179351270602638
 30
0.0
 11
36603.6805519997215015
 21
12527.6628793871295784
 31
0.0
  0
LINE
  5
5DD
  8
_0-5_
  6
CONTINUOUS
 62
     7
 10
38042.6487199475523084
 20
12016.6975898935997975
 30
0.0
 11
36000.0
 21
12833.7570778726203571
 31
0.0
  0
LINE
  5
5DE
  8
_0-5_
  6
CONTINUOUS
 62
     7
 10
38009.9778743347997079
 20
11965.1439504530899285
 30
0.0
 11
36000.0
 21
12769.1351001870098116
 31
0.0
  0
LINE
  5
5DF
  8
_0-3_
  6
CONTINUOUS
 62
     2
 10
36320.9956364785321057
 20
11068.2687219123108662
 30
0.0
 11
36469.5519070201698923
 21
11439.6593982664198847
 31
0.0
  0
LINE
  5
5E0
  8
_0-1_
  6
CONTINUOUS
 62
     4
 10
38085.1013491605190211
 20
11439.6593982664307987
 30
0.0
 11
36413.8433055670466274
 21
12108.1626157038208476
 31
0.0
  0
LINE
  5
5E1
  8
_0-1_
  6
CONTINUOUS
 62
     4
 10
36302.4261026608219254
 20
11829.6196084382409026
 30
0.0
 11
38085.1013491605190211
 21
11439.6593982664307987
 31
0.0
  0
LINE
  5
5E2
  8
_0-1_
  6
CONTINUOUS
 62
     4
 10
37713.7106728064172785
 20
10511.1827073811600712
 30
0.0
 11
38085.1013491605190211
 21
11439.6593982664307987
 31
0.0
  0
LINE
  5
5E3
  8
_0-1_
  6
CONTINUOUS
 62
     4
 10
36413.8433055670466274
 20
12108.1626157038208476
 30
0.0
 11
36302.4261026608219254
 21
11829.6196084382208937
 31
0.0
  0
LINE
  5
5E4
  8
_0-5_
  6
CONTINUOUS
 62
     7
 10
34527.6112825235832133
 20
12180.1796131964401866
 30
0.0
 11
34723.6363562001715763
 21
11870.8577765533900674
 31
0.0
  0
LINE
  5
5E5
  8
_0-5_
  6
CONTINUOUS
 62
     7
 10
34218.7180449545412557
 20
11604.2684743695299403
 30
0.0
 11
33957.3512800524185877
 21
12016.6975898935997975
 31
0.0
  0
LINE
  5
5E6
  8
_0-5_
  6
CONTINUOUS
 62
     7
 10
35479.5916968483579694
 20
12108.6179351270602638
 30
0.0
 11
34218.7180449545412557
 21
11604.2684743695299403
 31
0.0
  0
LINE
  5
5E7
  8
_0-5_
  6
CONTINUOUS
 62
     7
 10
34321.1411342834835523
 20
12097.5915539004108723
 30
0.0
 11
34392.5173475818519364
 21
11738.4101731060691236
 31
0.0
  0
LINE
  5
5E8
  8
_0-5_
  6
CONTINUOUS
 62
     7
 10
35065.2004393819734105
 20
12395.2152759397995396
 30
0.0
 11
35261.2255130585617735
 21
12085.8934392967494205
 31
0.0
  0
LINE
  5
5E9
  8
_0-5_
  6
CONTINUOUS
 62
     7
 10
34858.7302911418810254
 20
12312.6272166437593114
 30
0.0
 11
34930.1065044402494095
 21
11953.4458358494302956
 31
0.0
  0
LINE
  5
5EA
  8
_0-5_
  6
CONTINUOUS
 62
     7
 10
34186.0471993417668273
 20
11655.8221138100398093
 30
0.0
 11
35467.6956612986396067
 21
12168.4814985927896487
 31
0.0
  0
LINE
  5
5EB
  8
_0-5_
  6
CONTINUOUS
 62
     7
 10
34029.2271404004932265
 20
11903.2795831244802685
 30
0.0
 11
34335.4163769431615947
 21
12025.7552777415403398
 31
0.0
  0
LINE
  5
5EC
  8
_0-5_
  6
CONTINUOUS
 62
     7
 10
34068.4321551358079887
 20
11841.4152157958706084
 30
0.0
 11
34349.691619602846913
 21
11953.9190015826698072
 31
0.0
  0
LINE
  5
5ED
  8
_0-5_
  6
CONTINUOUS
 62
     7
 10
34107.6371698711373028
 20
11779.5508484672591294
 30
0.0
 11
34363.9668622625176795
 21
11882.0827254238101887
 31
0.0
  0
LINE
  5
5EE
  8
_0-5_
  6
CONTINUOUS
 62
     7
 10
34146.8421846064520651
 20
11717.6864811386494694
 30
0.0
 11
34378.2421049221884459
 21
11810.2464492649396561
 31
0.0
  0
LINE
  5
5EF
  8
_0-5_
  6
CONTINUOUS
 62
     7
 10
34566.8162972588834236
 20
12118.3152458678396215
 30
0.0
 11
34873.0055338015517918
 21
12240.7909404848996928
 31
0.0
  0
LINE
  5
5F0
  8
_0-5_
  6
CONTINUOUS
 62
     7
 10
35104.4054541172808968
 20
12333.3509086112007935
 30
0.0
 11
35410.594690659949265
 21
12455.8266032282499509
 31
0.0
  0
LINE
  5
5F1
  8
_0-5_
  6
CONTINUOUS
 62
     7
 10
34606.0213119942127378
 20
12056.4508785392299615
 30
0.0
 11
34887.2807764612225583
 21
12168.9546643260291603
 31
0.0
  0
LINE
  5
5F2
  8
_0-5_
  6
CONTINUOUS
 62
     7
 10
35143.610468852588383
 20
12271.4865412825802196
 30
0.0
 11
35424.8699333196127554
 21
12383.9903270693794184
 31
0.0
  0
LINE
  5
5F3
  8
_0-5_
  6
CONTINUOUS
 62
     7
 10
34645.226326729520224
 20
11994.5865112106203014
 30
0.0
 11
34901.5560191209078766
 21
12097.1183881671604468
 31
0.0
  0
LINE
  5
5F4
  8
_0-5_
  6
CONTINUOUS
 62
     7
 10
35182.8154835879104212
 20
12209.6221739539596456
 30
0.0
 11
35439.1451759792980738
 21
12312.1540509105107049
 31
0.0
  0
LINE
  5
5F5
  8
_0-5_
  6
CONTINUOUS
 62
     7
 10
34684.4313414648422622
 20
11932.7221438819997275
 30
0.0
 11
34915.8312617805786431
 21
12025.2821120083008282
 31
0.0
  0
LINE
  5
5F6
  8
_0-5_
  6
CONTINUOUS
 62
     7
 10
35222.0204983232324594
 20
12147.7578066253608995
 30
0.0
 11
35453.4204186389833922
 21
12240.3177747516492673
 31
0.0
  0
LINE
  5
5F7
  8
_0-5_
  6
CONTINUOUS
 62
     7
 10
35479.5916968483579694
 20
12108.6179351270602638
 30
0.0
 11
35396.3194480002712226
 21
12527.6628793871295784
 31
0.0
  0
LINE
  5
5F8
  8
_0-5_
  6
CONTINUOUS
 62
     7
 10
33957.3512800524185877
 20
12016.6975898935997975
 30
0.0
 11
36000.0
 21
12833.7570778726203571
 31
0.0
  0
LINE
  5
5F9
  8
_0-5_
  6
CONTINUOUS
 62
     7
 10
33990.0221256651930162
 20
11965.1439504530899285
 30
0.0
 11
36000.0
 21
12769.1351001870098116
 31
0.0
  0
LINE
  5
5FA
  8
_0-3_
  6
CONTINUOUS
 62
     4
 10
35419.0308900735835778
 20
11718.2024055320107436
 30
0.0
 11
35530.4480929798228317
 21
11439.6593982664198847
 31
0.0
  0
LINE
  5
5FB
  8
_0-1_
  6
CONTINUOUS
 62
     4
 10
33914.898650839459151
 20
11439.6593982664307987
 30
0.0
 11
35586.1566944329169928
 21
12108.1626157038208476
 31
0.0
  0
LINE
  5
5FC
  8
_0-1_
  6
CONTINUOUS
 62
     4
 10
35697.5738973391635227
 20
11829.6196084382409026
 30
0.0
 11
33914.898650839459151
 21
11439.6593982664307987
 31
0.0
  0
LINE
  5
5FD
  8
_0-1_
  6
CONTINUOUS
 62
     4
 10
34286.2893271936118254
 20
10511.1827073811691662
 30
0.0
 11
33914.898650839459151
 21
11439.6593982664307987
 31
0.0
  0
LINE
  5
5FE
  8
_0-3_
  6
CONTINUOUS
 62
     2
 10
35679.0043635214533424
 20
11068.2687219123108662
 30
0.0
 11
35530.4480929798228317
 21
11439.6593982664198847
 31
0.0
  0
LINE
  5
5FF
  8
_0-1_
  6
CONTINUOUS
 62
     4
 10
36000.0
 20
9925.7680820199875598
 30
0.0
 11
35500.0
 21
9725.7680820199893788
 31
0.0
  0
LINE
  5
600
  8
_0-1_
  6
CONTINUOUS
 62
     4
 10
34950.0
 20
9505.7680820199875598
 30
0.0
 11
31999.9999999999890861
 21
8325.7680820199893788
 31
0.0
  0
LINE
  5
601
  8
_0-1_
  6
CONTINUOUS
 62
     4
 10
36000.0
 20
9925.7680820199875598
 30
0.0
 11
36500.0
 21
9725.7680820199893788
 31
0.0
  0
LINE
  5
602
  8
_0-1_
  6
CONTINUOUS
 62
     4
 10
37050.0
 20
9505.7680820199875598
 30
0.0
 11
40000.0
 21
8325.7680820199893788
 31
0.0
  0
LINE
  5
603
  8
_0-3_
  6
CONTINUOUS
 62
     4
 10
36580.9691099264018703
 20
11718.2024055320107436
 30
0.0
 11
36469.5519070201698923
 21
11439.6593982664198847
 31
0.0
  0
LINE
  5
604
  8
_0-4_
  6
CONTINUOUS
 62
     3
 10
34230.5807257404594566
 20
10596.6025629426203523
 30
0.0
 11
34195.8121744523232337
 21
10763.561728304510325
 31
0.0
  0
LINE
  5
605
  8
_0-4_
  6
CONTINUOUS
 62
     3
 10
37769.4192742595332675
 20
10596.6025629426203523
 30
0.0
 11
37804.1878255476694903
 21
10763.561728304510325
 31
0.0
  0
LINE
  5
606
  8
_0-1_
  6
CONTINUOUS
 62
     4
 10
44389.1337623249710305
 20
10997.9321531166497152
 30
0.0
 11
44300.0
 21
10775.0977473041893973
 31
0.0
  0
LINE
  5
607
  8
_0-3_
  6
CONTINUOUS
 62
     2
 10
48000.0
 20
9596.6669765037277102
 30
0.0
 11
44300.0
 21
11076.6669765037295292
 31
0.0
  0
LINE
  5
608
  8
_0-5_
  6
CONTINUOUS
 62
     7
 10
45472.3887174764167867
 20
11081.6059925410008873
 30
0.0
 11
45276.3636437998211477
 21
10772.2841558979507681
 31
0.0
  0
LINE
  5
609
  8
_0-5_
  6
CONTINUOUS
 62
     7
 10
45781.2819550454296404
 20
10505.694853714090641
 30
0.0
 11
46042.6487199475523084
 21
10918.1239692381495843
 31
0.0
  0
LINE
  5
60A
  8
_0-5_
  6
CONTINUOUS
 62
     7
 10
44520.4083031516202027
 20
11010.0443144716191455
 30
0.0
 11
45781.2819550454296404
 21
10505.694853714090641
 31
0.0
  0
LINE
  5
60B
  8
_0-5_
  6
CONTINUOUS
 62
     7
 10
45678.8588657164873439
 20
10999.017933244969754
 30
0.0
 11
45607.4826524181189598
 21
10639.8365524506298243
 31
0.0
  0
LINE
  5
60C
  8
_0-5_
  6
CONTINUOUS
 62
     7
 10
44934.7995606180193136
 20
11296.6416552843602403
 30
0.0
 11
44738.7744869414309505
 21
10987.3198186413101212
 31
0.0
  0
LINE
  5
60D
  8
_0-5_
  6
CONTINUOUS
 62
     7
 10
45141.2697088580971467
 20
11214.0535959883200121
 30
0.0
 11
45069.8934955597287626
 21
10854.8722151939800824
 31
0.0
  0
LINE
  5
60E
  8
_0-5_
  6
CONTINUOUS
 62
     7
 10
45813.9528006581967929
 20
10557.24849315460051
 30
0.0
 11
44532.3043387013385654
 21
11069.9078779373394354
 31
0.0
  0
LINE
  5
60F
  8
_0-5_
  6
CONTINUOUS
 62
     7
 10
45970.7728595994631178
 20
10804.7059624690300552
 30
0.0
 11
45664.5836230568165774
 21
10927.1816570860992215
 31
0.0
  0
LINE
  5
610
  8
_0-5_
  6
CONTINUOUS
 62
     7
 10
45931.5678448641629075
 20
10742.8415951404203952
 30
0.0
 11
45650.308380397153087
 21
10855.345380927230508
 31
0.0
  0
LINE
  5
611
  8
_0-5_
  6
CONTINUOUS
 62
     7
 10
45892.3628301288335933
 20
10680.9772278118198301
 30
0.0
 11
45636.0331377374604926
 21
10783.5091047683599754
 31
0.0
  0
LINE
  5
612
  8
_0-5_
  6
CONTINUOUS
 62
     7
 10
45853.1578153935188311
 20
10619.1128604832101701
 30
0.0
 11
45621.7578950777970022
 21
10711.6728286094894429
 31
0.0
  0
LINE
  5
613
  8
_0-5_
  6
CONTINUOUS
 62
     7
 10
45433.1837027410874725
 20
11019.7416252123894083
 30
0.0
 11
45126.9944661984191043
 21
11142.2173198294494796
 31
0.0
  0
LINE
  5
614
  8
_0-5_
  6
CONTINUOUS
 62
     7
 10
44895.5945458826827235
 20
11234.7772879557505803
 30
0.0
 11
44589.4053093400289072
 21
11357.2529825728106516
 31
0.0
  0
LINE
  5
615
  8
_0-5_
  6
CONTINUOUS
 62
     7
 10
45393.9786880057727103
 20
10957.8772578837906622
 30
0.0
 11
45112.7192235387628898
 21
11070.381043670589861
 31
0.0
  0
LINE
  5
616
  8
_0-5_
  6
CONTINUOUS
 62
     7
 10
44856.3895311473825132
 20
11172.9129206271300063
 30
0.0
 11
44575.1300666803726926
 21
11285.4167064139401191
 31
0.0
  0
LINE
  5
617
  8
_0-5_
  6
CONTINUOUS
 62
     7
 10
45354.7736732704506721
 20
10896.0128905551700882
 30
0.0
 11
45098.4439808790775714
 21
10998.5447675117193285
 31
0.0
  0
LINE
  5
618
  8
_0-5_
  6
CONTINUOUS
 62
     7
 10
44817.184516412060475
 20
11111.0485532985203463
 30
0.0
 11
44560.8548240207019262
 21
11213.5804302550695866
 31
0.0
  0
LINE
  5
619
  8
_0-5_
  6
CONTINUOUS
 62
     7
 10
45315.568658535128634
 20
10834.1485232265604282
 30
0.0
 11
45084.168738219399529
 21
10926.7084913528597099
 31
0.0
  0
LINE
  5
61A
  8
_0-5_
  6
CONTINUOUS
 62
     7
 10
44777.9795016767529887
 20
11049.1841859699197812
 30
0.0
 11
44546.5795813610166078
 21
11141.744154096209968
 31
0.0
  0
LINE
  5
61B
  8
_0-5_
  6
CONTINUOUS
 62
     7
 10
44520.4083031516202027
 20
11010.0443144716191455
 30
0.0
 11
44603.6805519997069496
 21
11429.0892587316793652
 31
0.0
  0
LINE
  5
61C
  8
_0-5_
  6
CONTINUOUS
 62
     7
 10
46042.6487199475523084
 20
10918.1239692381495843
 30
0.0
 11
44000.0
 21
11735.1834572171792388
 31
0.0
  0
LINE
  5
61D
  8
_0-5_
  6
CONTINUOUS
 62
     7
 10
46009.9778743347997079
 20
10866.5703297976506292
 30
0.0
 11
44000.0
 21
11670.5614795315705123
 31
0.0
  0
LINE
  5
61E
  8
_0-1_
  6
CONTINUOUS
 62
     4
 10
44000.0
 20
10895.0977473042003112
 30
0.0
 11
48000.0
 21
9295.0977473041912162
 31
0.0
  0
LINE
  5
61F
  8
_0-1_
  6
CONTINUOUS
 62
     4
 10
44389.1337623249710305
 20
10997.9321531166497152
 30
0.0
 11
48000.0
 21
9553.5856580466497689
 31
0.0
  0
LINE
  5
620
  8
_0-2_
  6
DASHED1
 62
     7
 10
44396.5615758520725649
 20
11016.5016869343708095
 30
0.0
 11
48000.0
 21
9575.1263172751860111
 31
0.0
  0
LINE
  5
621
  8
_0-1_
  6
CONTINUOUS
 62
     4
 10
45050.0
 20
9505.7680820199875598
 30
0.0
 11
48000.0
 21
8325.7680820199802838
 31
0.0
  0
LINE
  5
622
  8
_0-1_
  6
CONTINUOUS
 62
     4
 10
43610.8662376749998657
 20
10997.9321531166497152
 30
0.0
 11
43700.0
 21
10775.0977473041893973
 31
0.0
  0
LINE
  5
623
  8
_0-3_
  6
CONTINUOUS
 62
     2
 10
40000.0
 20
9596.6669765037277102
 30
0.0
 11
43700.0
 21
11076.6669765037295292
 31
0.0
  0
LINE
  5
624
  8
_0-5_
  6
CONTINUOUS
 62
     7
 10
42527.6112825235686614
 20
11081.6059925410008873
 30
0.0
 11
42723.6363562001570244
 21
10772.2841558979507681
 31
0.0
  0
LINE
  5
625
  8
_0-5_
  6
CONTINUOUS
 62
     7
 10
42218.7180449545485317
 20
10505.694853714090641
 30
0.0
 11
41957.3512800524113118
 21
10918.1239692381495843
 31
0.0
  0
LINE
  5
626
  8
_0-5_
  6
CONTINUOUS
 62
     7
 10
43479.5916968483725213
 20
11010.0443144716191455
 30
0.0
 11
42218.7180449545485317
 21
10505.694853714090641
 31
0.0
  0
LINE
  5
627
  8
_0-5_
  6
CONTINUOUS
 62
     7
 10
42321.1411342834835523
 20
10999.017933244969754
 30
0.0
 11
42392.5173475818519364
 21
10639.8365524506298243
 31
0.0
  0
LINE
  5
628
  8
_0-5_
  6
CONTINUOUS
 62
     7
 10
43065.2004393819588586
 20
11296.6416552843602403
 30
0.0
 11
43261.2255130585617735
 21
10987.3198186413101212
 31
0.0
  0
LINE
  5
629
  8
_0-5_
  6
CONTINUOUS
 62
     7
 10
42858.7302911418664735
 20
11214.0535959883200121
 30
0.0
 11
42930.1065044402494095
 21
10854.8722151939800824
 31
0.0
  0
LINE
  5
62A
  8
_0-5_
  6
CONTINUOUS
 62
     7
 10
42186.0471993417668273
 20
10557.24849315460051
 30
0.0
 11
43467.6956612986323307
 21
11069.9078779373394354
 31
0.0
  0
LINE
  5
62B
  8
_0-5_
  6
CONTINUOUS
 62
     7
 10
42029.2271404004786746
 20
10804.7059624690300552
 30
0.0
 11
42335.4163769431615947
 21
10927.1816570860992215
 31
0.0
  0
LINE
  5
62C
  8
_0-5_
  6
CONTINUOUS
 62
     7
 10
42068.4321551358079887
 20
10742.8415951404203952
 30
0.0
 11
42349.6916196028396371
 21
10855.345380927230508
 31
0.0
  0
LINE
  5
62D
  8
_0-5_
  6
CONTINUOUS
 62
     7
 10
42107.6371698711373028
 20
10680.9772278118198301
 30
0.0
 11
42363.9668622625104035
 21
10783.5091047683599754
 31
0.0
  0
LINE
  5
62E
  8
_0-5_
  6
CONTINUOUS
 62
     7
 10
42146.8421846064520651
 20
10619.1128604832101701
 30
0.0
 11
42378.24210492218117
 21
10711.6728286094894429
 31
0.0
  0
LINE
  5
62F
  8
_0-5_
  6
CONTINUOUS
 62
     7
 10
42566.8162972588834236
 20
11019.7416252123894083
 30
0.0
 11
42873.0055338015517918
 21
11142.2173198294494796
 31
0.0
  0
LINE
  5
630
  8
_0-5_
  6
CONTINUOUS
 62
     7
 10
43104.4054541172808968
 20
11234.7772879557505803
 30
0.0
 11
43410.5946906599274371
 21
11357.2529825728106516
 31
0.0
  0
LINE
  5
631
  8
_0-5_
  6
CONTINUOUS
 62
     7
 10
42606.0213119941981859
 20
10957.8772578837906622
 30
0.0
 11
42887.2807764612080064
 21
11070.381043670589861
 31
0.0
  0
LINE
  5
632
  8
_0-5_
  6
CONTINUOUS
 62
     7
 10
43143.6104688525811071
 20
11172.9129206271300063
 30
0.0
 11
43424.8699333196127554
 21
11285.4167064139401191
 31
0.0
  0
LINE
  5
633
  8
_0-5_
  6
CONTINUOUS
 62
     7
 10
42645.226326729520224
 20
10896.0128905551700882
 30
0.0
 11
42901.5560191209006007
 21
10998.5447675117193285
 31
0.0
  0
LINE
  5
634
  8
_0-5_
  6
CONTINUOUS
 62
     7
 10
43182.8154835879104212
 20
11111.0485532985203463
 30
0.0
 11
43439.1451759792907978
 21
11213.5804302550695866
 31
0.0
  0
LINE
  5
635
  8
_0-5_
  6
CONTINUOUS
 62
     7
 10
42684.4313414648422622
 20
10834.1485232265604282
 30
0.0
 11
42915.8312617805786431
 21
10926.7084913528597099
 31
0.0
  0
LINE
  5
636
  8
_0-5_
  6
CONTINUOUS
 62
     7
 10
43222.0204983232324594
 20
11049.1841859699197812
 30
0.0
 11
43453.4204186389688402
 21
11141.744154096209968
 31
0.0
  0
LINE
  5
637
  8
_0-5_
  6
CONTINUOUS
 62
     7
 10
43479.5916968483725213
 20
11010.0443144716191455
 30
0.0
 11
43396.3194480002712226
 21
11429.0892587316793652
 31
0.0
  0
LINE
  5
638
  8
_0-5_
  6
CONTINUOUS
 62
     7
 10
41957.3512800524113118
 20
10918.1239692381495843
 30
0.0
 11
44000.0
 21
11735.1834572171792388
 31
0.0
  0
LINE
  5
639
  8
_0-5_
  6
CONTINUOUS
 62
     7
 10
41990.0221256651930162
 20
10866.5703297976506292
 30
0.0
 11
44000.0
 21
11670.5614795315705123
 31
0.0
  0
LINE
  5
63A
  8
_0-1_
  6
CONTINUOUS
 62
     4
 10
44000.0
 20
10895.0977473042003112
 30
0.0
 11
40000.0
 21
9295.0977473041912162
 31
0.0
  0
LINE
  5
63B
  8
_0-1_
  6
CONTINUOUS
 62
     4
 10
43610.8662376749998657
 20
10997.9321531166497152
 30
0.0
 11
40000.0
 21
9553.5856580466497689
 31
0.0
  0
LINE
  5
63C
  8
_0-2_
  6
DASHED1
 62
     7
 10
43603.4384241479128832
 20
11016.5016869343708095
 30
0.0
 11
40000.0
 21
9575.1263172751860111
 31
0.0
  0
LINE
  5
63D
  8
_0-1_
  6
CONTINUOUS
 62
     4
 10
42950.0
 20
9505.7680820199875598
 30
0.0
 11
40000.0
 21
8325.7680820199802838
 31
0.0
  0
LINE
  5
63E
  8
_0-4_
  6
CONTINUOUS
 62
     3
 10
48000.0
 20
4700.0
 30
0.0
 11
48000.0
 21
14700.0
 31
0.0
  0
LINE
  5
63F
  8
_0-4_
  6
CONTINUOUS
 62
     3
 10
40000.0
 20
4700.0
 30
0.0
 11
48000.0
 21
4700.0
 31
0.0
  0
LINE
  5
640
  8
_0-1_
  6
CONTINUOUS
 62
     4
 10
42950.0
 20
7625.7680820199893788
 30
0.0
 11
45050.0
 21
7625.7680820199893788
 31
0.0
  0
LINE
  5
641
  8
_0-1_
  6
CONTINUOUS
 62
     4
 10
42950.0
 20
7625.7680820199893788
 30
0.0
 11
42950.0
 21
9725.7680820199893788
 31
0.0
  0
LINE
  5
642
  8
_0-1_
  6
CONTINUOUS
 62
     4
 10
42950.0
 20
9725.7680820199893788
 30
0.0
 11
45050.0
 21
9725.7680820199893788
 31
0.0
  0
LINE
  5
643
  8
_0-1_
  6
CONTINUOUS
 62
     4
 10
45050.0
 20
7625.7680820199893788
 30
0.0
 11
45050.0
 21
9725.7680820199893788
 31
0.0
  0
LINE
  5
644
  8
_0-1_
  6
CONTINUOUS
 62
     4
 10
45050.0
 20
9725.7680820199893788
 30
0.0
 11
42950.0
 21
7625.7680820199893788
 31
0.0
  0
LINE
  5
645
  8
_0-1_
  6
CONTINUOUS
 62
     4
 10
45050.0
 20
7625.7680820199893788
 30
0.0
 11
42950.0
 21
9725.7680820199893788
 31
0.0
  0
LINE
  5
646
  8
_0-1_
  6
CONTINUOUS
 62
     4
 10
44500.0
 20
9725.7680820199893788
 30
0.0
 11
44000.0
 21
9925.7680820199875598
 31
0.0
  0
LINE
  5
647
  8
_0-1_
  6
CONTINUOUS
 62
     4
 10
43500.0
 20
9725.7680820199893788
 30
0.0
 11
44000.0
 21
9925.7680820199875598
 31
0.0
  0
LINE
  5
648
  8
_0-4_
  6
CONTINUOUS
 62
     3
 10
56000.0
 20
4700.0
 30
0.0
 11
56000.0
 21
14700.0
 31
0.0
  0
LINE
  5
649
  8
_0-4_
  6
CONTINUOUS
 62
     3
 10
48000.0
 20
4700.0
 30
0.0
 11
56000.0
 21
4700.0
 31
0.0
  0
LINE
  5
64A
  8
_0-1_
  6
CONTINUOUS
 62
     4
 10
50950.0
 20
7625.7680820199893788
 30
0.0
 11
53050.0
 21
7625.7680820199893788
 31
0.0
  0
LINE
  5
64B
  8
_0-1_
  6
CONTINUOUS
 62
     4
 10
50950.0
 20
7625.7680820199893788
 30
0.0
 11
50950.0
 21
9725.7680820199893788
 31
0.0
  0
LINE
  5
64C
  8
_0-1_
  6
CONTINUOUS
 62
     4
 10
50950.0
 20
9725.7680820199893788
 30
0.0
 11
53050.0
 21
9725.7680820199893788
 31
0.0
  0
LINE
  5
64D
  8
_0-1_
  6
CONTINUOUS
 62
     4
 10
53050.0
 20
7625.7680820199893788
 30
0.0
 11
53050.0
 21
9725.7680820199893788
 31
0.0
  0
LINE
  5
64E
  8
_0-1_
  6
CONTINUOUS
 62
     4
 10
53050.0
 20
9725.7680820199893788
 30
0.0
 11
50950.0
 21
7625.7680820199893788
 31
0.0
  0
LINE
  5
64F
  8
_0-1_
  6
CONTINUOUS
 62
     4
 10
53050.0
 20
7625.7680820199893788
 30
0.0
 11
50950.0
 21
9725.7680820199893788
 31
0.0
  0
LINE
  5
650
  8
_0-1_
  6
CONTINUOUS
 62
     4
 10
48000.0
 20
9943.591594466694005
 30
0.0
 11
52000.0
 21
10743.591594466690367
 31
0.0
  0
LINE
  5
651
  8
_0-1_
  6
CONTINUOUS
 62
     4
 10
48000.0
 20
10188.3445311191408109
 30
0.0
 11
51652.9321275668189628
 21
10918.9309566325100604
 31
0.0
  0
LINE
  5
652
  8
_0-1_
  6
CONTINUOUS
 62
     4
 10
51700.0
 20
10683.591594466690367
 30
0.0
 11
51652.9321275668189628
 21
10918.9309566325100604
 31
0.0
  0
LINE
  5
653
  8
_0-2_
  6
DASHED1
 62
     7
 10
48000.0
 20
10208.7406091735101654
 30
0.0
 11
51649.0098048640720663
 21
10938.5425701463300356
 31
0.0
  0
LINE
  5
654
  8
_0-3_
  6
CONTINUOUS
 62
     2
 10
48000.0
 20
10229.1366872278904339
 30
0.0
 11
51700.0
 21
10969.1366872278904339
 31
0.0
  0
LINE
  5
655
  8
_0-3_
  6
CONTINUOUS
 62
     2
 10
51700.0
 20
10969.1366872278904339
 30
0.0
 11
51660.7767729723418597
 21
11165.2528223660792719
 31
0.0
  0
LINE
  5
656
  8
_0-1_
  6
CONTINUOUS
 62
     4
 10
52000.0
 20
9825.7680820199893788
 30
0.0
 11
51500.0
 21
9725.7680820199893788
 31
0.0
  0
LINE
  5
657
  8
_0-1_
  6
CONTINUOUS
 62
     4
 10
50950.0
 20
9615.7680820199875598
 30
0.0
 11
48000.0
 21
9025.7680820199875598
 31
0.0
  0
LINE
  5
658
  8
_0-1_
  6
CONTINUOUS
 62
     4
 10
55999.9999999999708962
 20
10188.3445311191408109
 30
0.0
 11
52347.0678724331592093
 21
10918.9309566325100604
 31
0.0
  0
LINE
  5
659
  8
_0-1_
  6
CONTINUOUS
 62
     4
 10
52300.0
 20
10683.591594466690367
 30
0.0
 11
52347.0678724331592093
 21
10918.9309566325100604
 31
0.0
  0
LINE
  5
65A
  8
_0-2_
  6
DASHED1
 62
     7
 10
55999.9999999999708962
 20
10208.7406091735101654
 30
0.0
 11
52350.9901951359206578
 21
10938.5425701463300356
 31
0.0
  0
LINE
  5
65B
  8
_0-3_
  6
CONTINUOUS
 62
     2
 10
55999.9999999999708962
 20
10229.1366872278904339
 30
0.0
 11
52300.0
 21
10969.1366872278904339
 31
0.0
  0
LINE
  5
65C
  8
_0-3_
  6
CONTINUOUS
 62
     2
 10
52300.0
 20
10969.1366872278904339
 30
0.0
 11
52339.2232270276217605
 21
11165.2528223660792719
 31
0.0
  0
LINE
  5
65D
  8
_0-1_
  6
CONTINUOUS
 62
     4
 10
52000.0
 20
9825.7680820199893788
 30
0.0
 11
52500.0
 21
9725.7680820199893788
 31
0.0
  0
LINE
  5
65E
  8
_0-1_
  6
CONTINUOUS
 62
     4
 10
53050.0
 20
9615.7680820199875598
 30
0.0
 11
55999.9999999999708962
 21
9025.7680820199875598
 31
0.0
  0
LINE
  5
65F
  8
_0-1_
  6
CONTINUOUS
 62
     4
 10
55999.9999999999708962
 20
9943.591594466694005
 30
0.0
 11
52000.0
 21
10743.591594466690367
 31
0.0
  0
LINE
  5
660
  8
_0-5_
  6
CONTINUOUS
 62
     7
 10
52520.2015218876113067
 20
11582.5034353634091531
 30
0.0
 11
53781.0751737814280204
 21
11078.1539746058806486
 31
0.0
  0
LINE
  5
661
  8
_0-5_
  6
CONTINUOUS
 62
     7
 10
53813.7460193942024489
 20
11129.7076140463905176
 30
0.0
 11
52532.0975574373514974
 21
11642.366998829129443
 31
0.0
  0
LINE
  5
662
  8
_0-5_
  6
CONTINUOUS
 62
     7
 10
53781.0751737814280204
 20
11078.1539746058806486
 30
0.0
 11
54042.4419386835725163
 21
11490.5830901299505058
 31
0.0
  0
LINE
  5
663
  8
_0-5_
  6
CONTINUOUS
 62
     7
 10
53852.9510341295099352
 20
11191.5719813750001776
 30
0.0
 11
53621.5511138138026581
 21
11284.1319495012903644
 31
0.0
  0
LINE
  5
664
  8
_0-5_
  6
CONTINUOUS
 62
     7
 10
52856.1827498833808932
 20
11745.3720415189291089
 30
0.0
 11
52574.9232854163492448
 21
11857.8758273057301267
 31
0.0
  0
LINE
  5
665
  8
_0-5_
  6
CONTINUOUS
 62
     7
 10
52816.9777351480734069
 20
11683.5076741903194488
 30
0.0
 11
52560.6480427566712024
 21
11786.0395511468595942
 31
0.0
  0
LINE
  5
666
  8
_0-5_
  6
CONTINUOUS
 62
     7
 10
52777.7727204127368168
 20
11621.6433068617097888
 30
0.0
 11
52546.3728000970077119
 21
11714.2032749879999756
 31
0.0
  0
LINE
  5
667
  8
_0-5_
  6
CONTINUOUS
 62
     7
 10
52520.2015218876113067
 20
11582.5034353634091531
 30
0.0
 11
52603.4737707356907777
 21
12001.5483796234693727
 31
0.0
  0
LINE
  5
668
  8
_0-5_
  6
CONTINUOUS
 62
     7
 10
54042.4419386835725163
 20
11490.5830901299505058
 30
0.0
 11
51999.7932187359692762
 21
12307.6425781089692464
 31
0.0
  0
LINE
  5
669
  8
_0-5_
  6
CONTINUOUS
 62
     7
 10
54009.7710930707908119
 20
11439.0294506894406368
 30
0.0
 11
51999.7932187359692762
 21
12243.0206004233605199
 31
0.0
  0
LINE
  5
66A
  8
_0-4_
  6
CONTINUOUS
 62
     3
 10
54450.3087797508196672
 20
10582.1631359039292875
 30
0.0
 11
54446.3864570480582188
 21
10562.5515223901093123
 31
0.0
  0
LINE
  5
66B
  8
_0-4_
  6
CONTINUOUS
 62
     3
 10
54446.3864570480582188
 20
10562.5515223901093123
 30
0.0
 11
54289.3962261632404989
 21
10593.9495685670699459
 31
0.0
  0
LINE
  5
66C
  8
_0-5_
  6
CONTINUOUS
 62
     7
 10
53141.0629275940882508
 20
11786.5127168801100197
 30
0.0
 11
53069.6867142957271426
 21
11427.3313360857791849
 31
0.0
  0
LINE
  5
66D
  8
_0-5_
  6
CONTINUOUS
 62
     7
 10
53432.9769214770713006
 20
11592.2007461041794159
 30
0.0
 11
53126.7876849344320362
 21
11714.6764407212504011
 31
0.0
  0
LINE
  5
66E
  8
_0-5_
  6
CONTINUOUS
 62
     7
 10
53393.7719067417492624
 20
11530.3363787755806698
 30
0.0
 11
53112.5124422747467179
 21
11642.8401645623798686
 31
0.0
  0
LINE
  5
66F
  8
_0-5_
  6
CONTINUOUS
 62
     7
 10
53354.5668920064417762
 20
11468.4720114469691907
 30
0.0
 11
53098.2371996150686755
 21
11571.0038884035093361
 31
0.0
  0
LINE
  5
670
  8
_0-5_
  6
CONTINUOUS
 62
     7
 10
53315.361877271127014
 20
11406.6076441183504357
 30
0.0
 11
53083.961956955412461
 21
11499.1676122446497175
 31
0.0
  0
LINE
  5
671
  8
_0-5_
  6
CONTINUOUS
 62
     7
 10
53472.1819362124078907
 20
11654.0651134327908949
 30
0.0
 11
53276.1568625357904239
 21
11344.7432767897407757
 31
0.0
  0
LINE
  5
672
  8
_0-5_
  6
CONTINUOUS
 62
     7
 10
53678.6520844524929998
 20
11571.4770541367597616
 30
0.0
 11
53607.2758711541318917
 21
11212.2956733424198319
 31
0.0
  0
LINE
  5
673
  8
_0-5_
  6
CONTINUOUS
 62
     7
 10
52934.5927793540104176
 20
11869.1007761761502479
 30
0.0
 11
52738.5677056774075027
 21
11559.7789395331001288
 31
0.0
  0
LINE
  5
674
  8
_0-5_
  6
CONTINUOUS
 62
     7
 10
53970.5660783354687737
 20
11377.1650833608200628
 30
0.0
 11
53664.3768417928076815
 21
11499.6407779778892291
 31
0.0
  0
LINE
  5
675
  8
_0-5_
  6
CONTINUOUS
 62
     7
 10
53931.3610636001612875
 20
11315.3007160322104028
 30
0.0
 11
53650.1015991331296391
 21
11427.8045018190205155
 31
0.0
  0
LINE
  5
676
  8
_0-5_
  6
CONTINUOUS
 62
     7
 10
53892.1560488648319733
 20
11253.4363487036098377
 30
0.0
 11
53635.8263564734734246
 21
11355.968225660160897
 31
0.0
  0
LINE
  5
677
  8
_0-5_
  6
CONTINUOUS
 62
     7
 10
52895.3877646186811035
 20
11807.2364088475405879
 30
0.0
 11
52589.1985280760200112
 21
11929.7121034646006592
 31
0.0
  0
LINE
  5
678
  8
_0-1_
  6
CONTINUOUS
 62
     4
 10
53973.4773649902781472
 20
10635.0018912371906481
 30
0.0
 11
54084.8945678964882973
 21
10913.544898502770593
 31
0.0
  0
LINE
  5
679
  8
_0-4_
  6
CONTINUOUS
 62
     3
 10
52299.7932187359765521
 20
11649.1260973955304507
 30
0.0
 11
54110.8919152412781841
 21
10924.6866187933992478
 31
0.0
  0
LINE
  5
67A
  8
_0-4_
  6
CONTINUOUS
 62
     3
 10
54009.1733559866406722
 20
10670.3902206567599933
 30
0.0
 11
54110.8919152412781841
 21
10924.6866187933992478
 31
0.0
  0
LINE
  5
67B
  8
_0-4_
  6
CONTINUOUS
 62
     3
 10
54450.3087797508196672
 20
10582.1631359039292875
 30
0.0
 11
54009.1733559866406722
 21
10670.3902206567599933
 31
0.0
  0
LINE
  5
67C
  8
_0-5_
  6
CONTINUOUS
 62
     7
 10
51479.7984781124032452
 20
11582.5034353634091531
 30
0.0
 11
50218.9248262185428757
 21
11078.1539746058806486
 31
0.0
  0
LINE
  5
67D
  8
_0-5_
  6
CONTINUOUS
 62
     7
 10
50186.2539806057684473
 20
11129.7076140463905176
 30
0.0
 11
51467.9024425626485026
 21
11642.366998829129443
 31
0.0
  0
LINE
  5
67E
  8
_0-5_
  6
CONTINUOUS
 62
     7
 10
50218.9248262185428757
 20
11078.1539746058806486
 30
0.0
 11
49957.5580613164420356
 21
11490.5830901299505058
 31
0.0
  0
LINE
  5
67F
  8
_0-5_
  6
CONTINUOUS
 62
     7
 10
50147.048965870468237
 20
11191.5719813750001776
 30
0.0
 11
50378.4488861862118938
 21
11284.1319495012903644
 31
0.0
  0
LINE
  5
680
  8
_0-5_
  6
CONTINUOUS
 62
     7
 10
51143.8172501166118309
 20
11745.3720415189291089
 30
0.0
 11
51425.0767145836070995
 21
11857.8758273057301267
 31
0.0
  0
LINE
  5
681
  8
_0-5_
  6
CONTINUOUS
 62
     7
 10
51183.0222648519265931
 20
11683.5076741903194488
 30
0.0
 11
51439.3519572432996938
 21
11786.0395511468595942
 31
0.0
  0
LINE
  5
682
  8
_0-5_
  6
CONTINUOUS
 62
     7
 10
51222.2272795872268034
 20
11621.6433068617097888
 30
0.0
 11
51453.6271999029777362
 21
11714.2032749879999756
 31
0.0
  0
LINE
  5
683
  8
_0-5_
  6
CONTINUOUS
 62
     7
 10
51479.7984781124032452
 20
11582.5034353634091531
 30
0.0
 11
51396.5262292642582906
 21
12001.5483796234693727
 31
0.0
  0
LINE
  5
684
  8
_0-5_
  6
CONTINUOUS
 62
     7
 10
49957.5580613164420356
 20
11490.5830901299505058
 30
0.0
 11
52000.20678126400162
 21
12307.6425781089692464
 31
0.0
  0
LINE
  5
685
  8
_0-5_
  6
CONTINUOUS
 62
     7
 10
49990.2289069292019121
 20
11439.0294506894406368
 30
0.0
 11
52000.20678126400162
 21
12243.0206004233605199
 31
0.0
  0
LINE
  5
686
  8
_0-4_
  6
CONTINUOUS
 62
     3
 10
49549.6912202491730568
 20
10582.1631359039292875
 30
0.0
 11
49553.6135429519272293
 21
10562.5515223901093123
 31
0.0
  0
LINE
  5
687
  8
_0-4_
  6
CONTINUOUS
 62
     3
 10
49553.6135429519272293
 20
10562.5515223901093123
 30
0.0
 11
49710.6037738367522252
 21
10593.9495685670699459
 31
0.0
  0
LINE
  5
688
  8
_0-5_
  6
CONTINUOUS
 62
     7
 10
50858.9370724058680935
 20
11786.5127168801100197
 30
0.0
 11
50930.3132857042583055
 21
11427.3313360857791849
 31
0.0
  0
LINE
  5
689
  8
_0-5_
  6
CONTINUOUS
 62
     7
 10
50567.0230785228923196
 20
11592.2007461041794159
 30
0.0
 11
50873.2123150655534118
 21
11714.6764407212504011
 31
0.0
  0
LINE
  5
68A
  8
_0-5_
  6
CONTINUOUS
 62
     7
 10
50606.2280932582216337
 20
11530.3363787755806698
 30
0.0
 11
50887.4875577252096264
 21
11642.8401645623798686
 31
0.0
  0
LINE
  5
68B
  8
_0-5_
  6
CONTINUOUS
 62
     7
 10
50645.43310799352912
 20
11468.4720114469691907
 30
0.0
 11
50901.7628003849313245
 21
11571.0038884035093361
 31
0.0
  0
LINE
  5
68C
  8
_0-5_
  6
CONTINUOUS
 62
     7
 10
50684.6381227288511582
 20
11406.6076441183504357
 30
0.0
 11
50916.038043044602091
 21
11499.1676122446497175
 31
0.0
  0
LINE
  5
68D
  8
_0-5_
  6
CONTINUOUS
 62
     7
 10
50527.8180637875775574
 20
11654.0651134327908949
 30
0.0
 11
50723.8431374641731963
 21
11344.7432767897407757
 31
0.0
  0
LINE
  5
68E
  8
_0-5_
  6
CONTINUOUS
 62
     7
 10
50321.3479155474924482
 20
11571.4770541367597616
 30
0.0
 11
50392.7241288458681083
 21
11212.2956733424198319
 31
0.0
  0
LINE
  5
68F
  8
_0-5_
  6
CONTINUOUS
 62
     7
 10
51065.4072206459895824
 20
11869.1007761761502479
 30
0.0
 11
51261.4322943225488416
 21
11559.7789395331001288
 31
0.0
  0
LINE
  5
690
  8
_0-5_
  6
CONTINUOUS
 62
     7
 10
50029.4339216645166744
 20
11377.1650833608200628
 30
0.0
 11
50335.6231582071632147
 21
11499.6407779778892291
 31
0.0
  0
LINE
  5
691
  8
_0-5_
  6
CONTINUOUS
 62
     7
 10
50068.6389363998314366
 20
11315.3007160322104028
 30
0.0
 11
50349.898400866848533
 21
11427.8045018190205155
 31
0.0
  0
LINE
  5
692
  8
_0-5_
  6
CONTINUOUS
 62
     7
 10
50107.8439511351389228
 20
11253.4363487036098377
 30
0.0
 11
50364.1736435265265754
 21
11355.968225660160897
 31
0.0
  0
LINE
  5
693
  8
_0-5_
  6
CONTINUOUS
 62
     7
 10
51104.6122353812970687
 20
11807.2364088475405879
 30
0.0
 11
51410.8014719239290571
 21
11929.7121034646006592
 31
0.0
  0
LINE
  5
694
  8
_0-1_
  6
CONTINUOUS
 62
     4
 10
50026.522635009700025
 20
10635.0018912371906481
 30
0.0
 11
49915.105432103468047
 21
10913.544898502770593
 31
0.0
  0
LINE
  5
695
  8
_0-4_
  6
CONTINUOUS
 62
     3
 10
51700.20678126400162
 20
11649.1260973955304507
 30
0.0
 11
49889.1080847586927121
 21
10924.6866187933992478
 31
0.0
  0
LINE
  5
696
  8
_0-4_
  6
CONTINUOUS
 62
     3
 10
49990.8266440133520518
 20
10670.3902206567599933
 30
0.0
 11
49889.1080847586927121
 21
10924.6866187933992478
 31
0.0
  0
LINE
  5
697
  8
_0-4_
  6
CONTINUOUS
 62
     3
 10
49549.6912202491730568
 20
10582.1631359039292875
 30
0.0
 11
49990.8266440133520518
 21
10670.3902206567599933
 31
0.0
  0
LINE
  5
698
  8
_0-0_
  6
CENTER1
 62
     4
 10
36000.0
 20
4700.0
 30
0.0
 11
36000.0
 21
14400.0
 31
0.0
  0
LINE
  5
699
  8
_0-0_
  6
CENTER1
 62
     4
 10
44000.0
 20
4700.0
 30
0.0
 11
44000.0
 21
14400.0
 31
0.0
  0
LINE
  5
69A
  8
_0-0_
  6
CENTER1
 62
     4
 10
52000.0
 20
4700.0
 30
0.0
 11
52000.0
 21
14400.0
 31
0.0
  0
LINE
  5
69B
  8
_0-4_
  6
CONTINUOUS
 62
     3
 10
32000.0
 20
14400.0
 30
0.0
 11
40000.0
 21
14400.0
 31
0.0
  0
LINE
  5
69C
  8
_0-4_
  6
CONTINUOUS
 62
     3
 10
34000.0
 20
14700.0
 30
0.0
 11
34000.0
 21
14400.0
 31
0.0
  0
LINE
  5
69D
  8
_0-4_
  6
CONTINUOUS
 62
     3
 10
36000.0
 20
14700.0
 30
0.0
 11
36000.0
 21
14400.0
 31
0.0
  0
TEXT
  5
69E
  8
_0-1_
 62
     4
 10
32257.3602414003507874
 20
14450.0
 30
0.0
 40
200.0
  1
ニューテッペン
  0
LINE
  5
69F
  8
_0-4_
  6
CONTINUOUS
 62
     3
 10
40000.0
 20
14400.0
 30
0.0
 11
48000.0
 21
14400.0
 31
0.0
  0
LINE
  5
6A0
  8
_0-4_
  6
CONTINUOUS
 62
     3
 10
42000.0
 20
14700.0
 30
0.0
 11
42000.0
 21
14400.0
 31
0.0
  0
LINE
  5
6A1
  8
_0-4_
  6
CONTINUOUS
 62
     3
 10
44000.0
 20
14700.0
 30
0.0
 11
44000.0
 21
14400.0
 31
0.0
  0
TEXT
  5
6A2
  8
_0-1_
 62
     4
 10
40257.3602414003471495
 20
14450.0
 30
0.0
 40
200.0
  1
ニューテッペン
  0
LINE
  5
6A3
  8
_0-4_
  6
CONTINUOUS
 62
     3
 10
48000.0
 20
14400.0
 30
0.0
 11
56000.0
 21
14400.0
 31
0.0
  0
LINE
  5
6A4
  8
_0-4_
  6
CONTINUOUS
 62
     3
 10
50000.0
 20
14700.0
 30
0.0
 11
50000.0
 21
14400.0
 31
0.0
  0
LINE
  5
6A5
  8
_0-4_
  6
CONTINUOUS
 62
     3
 10
52000.0
 20
14700.0
 30
0.0
 11
52000.0
 21
14400.0
 31
0.0
  0
TEXT
  5
6A6
  8
_0-1_
 62
     4
 10
48257.3602414003471495
 20
14450.0
 30
0.0
 40
200.0
  1
ニューテッペン
  0
TEXT
  5
6A7
  8
_0-1_
 62
     4
 10
34757.3602414003617014
 20
14450.0
 30
0.0
 40
200.0
  1
瓦棒
  0
TEXT
  5
6A8
  8
_0-1_
 62
     4
 10
42357.3602414003471495
 20
14450.0
 30
0.0
 40
200.0
  1
板金（横葺）
  0
TEXT
  5
6A9
  8
_0-1_
 62
     4
 10
50257.3602414003471495
 20
14450.0
 30
0.0
 40
200.0
  1
板金（緩勾配）
  0
TEXT
  5
6AA
  8
_0-1_
 62
     4
 10
39233.8546117924124701
 20
14450.0
 30
0.0
 40
200.0
  1
S=1/5
  0
TEXT
  5
6AB
  8
_0-1_
 62
     4
 10
47233.8546117923979182
 20
14450.0
 30
0.0
 40
200.0
  1
S=1/5
  0
TEXT
  5
6AC
  8
_0-1_
 62
     4
 10
55233.8546117923906422
 20
14450.0
 30
0.0
 40
200.0
  1
S=1/5
  0
LINE
  5
6AD
  8
_0-1_
  6
CONTINUOUS
 62
     4
 10
35586.1566944329169928
 20
12108.1626157038208476
 30
0.0
 11
35697.5738973391707987
 21
11829.6196084382208937
 31
0.0
  0
LINE
  5
6AE
  8
_0-3_
  6
CONTINUOUS
 62
     4
 10
31999.9999999999890861
 20
10350.5900495025507553
 30
0.0
 11
35697.5738973391707987
 21
11829.6196084382208937
 31
0.0
  0
LINE
  5
6AF
  8
_0-4_
  6
CONTINUOUS
 62
     3
 10
35700.0
 20
12175.2405971591797424
 30
0.0
 11
35677.7165594187317765
 21
12230.9491986122902745
 31
0.0
  0
LINE
  5
6B0
  8
_0-4_
  6
CONTINUOUS
 62
     3
 10
36300.0
 20
12175.2405971591797424
 30
0.0
 11
36322.2834405812318437
 21
12230.9491986122902745
 31
0.0
  0
LINE
  5
6B1
  8
_0-3_
  6
CONTINUOUS
 62
     2
 10
43700.0
 20
11076.6669765037295292
 30
0.0
 11
43677.7165594187317765
 21
11132.3755779568491562
 31
0.0
  0
LINE
  5
6B2
  8
_0-3_
  6
CONTINUOUS
 62
     2
 10
44300.0
 20
11076.6669765037295292
 30
0.0
 11
44322.2834405812318437
 21
11132.3755779568491562
 31
0.0
  0
LINE
  5
6B3
  8
_0-4_
  6
CONTINUOUS
 62
     3
 10
52299.7932187359765521
 20
11649.1260973955304507
 30
0.0
 11
52322.0766593172302237
 21
11704.8346988486391638
 31
0.0
  0
LINE
  5
6B4
  8
_0-4_
  6
CONTINUOUS
 62
     3
 10
51700.20678126400162
 20
11649.1260973955304507
 30
0.0
 11
51677.9233406827625004
 21
11704.8346988486391638
 31
0.0
  0
LINE
  5
6B5
  8
_0-1_
  6
CONTINUOUS
 62
     4
 10
51349.9623102112309425
 20
11487.4876497458808444
 30
0.0
 11
50026.522635009700025
 21
10635.0018912371906481
 31
0.0
  0
LINE
  5
6B6
  8
_0-1_
  6
CONTINUOUS
 62
     4
 10
52650.0376897887399537
 20
11487.4876497458808444
 30
0.0
 11
53973.4773649902781472
 21
10635.0018912371906481
 31
0.0
  0
LINE
  5
6B7
  8
_0-1_
  6
CONTINUOUS
 62
     4
 10
49915.105432103468047
 20
10913.544898502770593
 30
0.0
 11
51349.9623102112309425
 21
11487.4876497458808444
 31
0.0
  0
LINE
  5
6B8
  8
_0-1_
  6
CONTINUOUS
 62
     4
 10
51567.6652077921316959
 20
10943.2304057936798927
 30
0.0
 11
51349.9623102112309425
 21
11487.4876497458808444
 31
0.0
  0
LINE
  5
6B9
  8
_0-1_
  6
CONTINUOUS
 62
     4
 10
52432.3347922078610281
 20
10943.2304057936798927
 30
0.0
 11
52650.0376897887399537
 21
11487.4876497458808444
 31
0.0
  0
LINE
  5
6BA
  8
_0-1_
  6
CONTINUOUS
 62
     4
 10
54084.8945678964882973
 20
10913.544898502770593
 30
0.0
 11
52650.0376897887399537
 21
11487.4876497458808444
 31
0.0
  0
LINE
  5
6BB
  8
_0-4_
  6
CONTINUOUS
 62
     3
 10
36300.0
 20
12175.2405971591797424
 30
0.0
 11
38296.7940346823670552
 21
11376.5229832862296462
 31
0.0
  0
LINE
  5
6BC
  8
_0-4_
  6
CONTINUOUS
 62
     3
 10
38103.6708829782219254
 20
11432.2315847393401782
 30
0.0
 11
37769.4192742595332675
 21
10596.6025629426203523
 31
0.0
  0
LINE
  5
6BD
  8
_0-4_
  6
CONTINUOUS
 62
     3
 10
38296.7940346823670552
 20
11376.5229832862296462
 30
0.0
 11
38289.3662211552800727
 21
11357.9534494685194659
 31
0.0
  0
LINE
  5
6BE
  8
_0-4_
  6
CONTINUOUS
 62
     3
 10
38103.6708829782219254
 20
11432.2315847393401782
 30
0.0
 11
38289.3662211552800727
 21
11357.9534494685194659
 31
0.0
  0
LINE
  5
6BF
  8
_0-4_
  6
CONTINUOUS
 62
     3
 10
33703.2059653176402207
 20
11376.5229832862296462
 30
0.0
 11
33710.6337788447199273
 21
11357.9534494685194659
 31
0.0
  0
LINE
  5
6C0
  8
_0-4_
  6
CONTINUOUS
 62
     3
 10
35700.0
 20
12175.2405971591797424
 30
0.0
 11
33703.2059653176402207
 21
11376.5229832862296462
 31
0.0
  0
LINE
  5
6C1
  8
_0-4_
  6
CONTINUOUS
 62
     3
 10
33896.3291170217635226
 20
11432.2315847393401782
 30
0.0
 11
33710.6337788447199273
 21
11357.9534494685194659
 31
0.0
  0
LINE
  5
6C2
  8
_0-4_
  6
CONTINUOUS
 62
     3
 10
33896.3291170217635226
 20
11432.2315847393401782
 30
0.0
 11
34230.5807257404594566
 21
10596.6025629426203523
 31
0.0
  0
LINE
  5
6C3
  8
_1-A_
  6
CONTINUOUS
 62
     7
 10
35700.0
 20
10375.0977473042003112
 30
0.0
 11
35700.0
 21
10575.0977473042003112
 31
0.0
  0
LINE
  5
6C4
  8
_1-A_
  6
CONTINUOUS
 62
     7
 10
36299.999999999992724
 20
10375.0977473042003112
 30
0.0
 11
36299.999999999992724
 21
10575.0977473042003112
 31
0.0
  0
CIRCLE
  5
6C5
  8
_1-A_
  6
CONTINUOUS
 62
     5
 10
35700.0
 20
10375.0977473042003112
 30
0.0
 40
20.0
  0
CIRCLE
  5
6C6
  8
_1-A_
  6
CONTINUOUS
 62
     5
 10
35700.0
 20
10375.0977473042003112
 30
0.0
 40
20.0
  0
CIRCLE
  5
6C7
  8
_1-A_
  6
CONTINUOUS
 62
     5
 10
36299.999999999992724
 20
10375.0977473042003112
 30
0.0
 40
20.0
  0
CIRCLE
  5
6C8
  8
_1-A_
  6
CONTINUOUS
 62
     5
 10
36299.999999999992724
 20
10375.0977473042003112
 30
0.0
 40
20.0
  0
LINE
  5
6C9
  8
_1-A_
  6
CONTINUOUS
 62
     7
 10
43700.0
 20
10375.0977473041893973
 30
0.0
 11
43700.0
 21
10575.0977473041893973
 31
0.0
  0
LINE
  5
6CA
  8
_1-A_
  6
CONTINUOUS
 62
     7
 10
44299.999999999992724
 20
10375.0977473041893973
 30
0.0
 11
44299.999999999992724
 21
10575.0977473041893973
 31
0.0
  0
CIRCLE
  5
6CB
  8
_1-A_
  6
CONTINUOUS
 62
     5
 10
43700.0
 20
10375.0977473041893973
 30
0.0
 40
20.0
  0
CIRCLE
  5
6CC
  8
_1-A_
  6
CONTINUOUS
 62
     5
 10
43700.0
 20
10375.0977473041893973
 30
0.0
 40
20.0
  0
CIRCLE
  5
6CD
  8
_1-A_
  6
CONTINUOUS
 62
     5
 10
44299.999999999992724
 20
10375.0977473041893973
 30
0.0
 40
20.0
  0
CIRCLE
  5
6CE
  8
_1-A_
  6
CONTINUOUS
 62
     5
 10
44299.999999999992724
 20
10375.0977473041893973
 30
0.0
 40
20.0
  0
LINE
  5
6CF
  8
_1-A_
  6
CONTINUOUS
 62
     7
 10
51700.0
 20
10283.591594466690367
 30
0.0
 11
51700.0
 21
10483.591594466690367
 31
0.0
  0
LINE
  5
6D0
  8
_1-A_
  6
CONTINUOUS
 62
     7
 10
52299.9999999999708962
 20
10283.591594466690367
 30
0.0
 11
52299.9999999999708962
 21
10483.591594466690367
 31
0.0
  0
CIRCLE
  5
6D1
  8
_1-A_
  6
CONTINUOUS
 62
     5
 10
51700.0
 20
10283.591594466690367
 30
0.0
 40
20.0
  0
CIRCLE
  5
6D2
  8
_1-A_
  6
CONTINUOUS
 62
     5
 10
51700.0
 20
10283.591594466690367
 30
0.0
 40
20.0
  0
CIRCLE
  5
6D3
  8
_1-A_
  6
CONTINUOUS
 62
     5
 10
52299.9999999999708962
 20
10283.591594466690367
 30
0.0
 40
20.0
  0
CIRCLE
  5
6D4
  8
_1-A_
  6
CONTINUOUS
 62
     5
 10
52299.9999999999708962
 20
10283.591594466690367
 30
0.0
 40
20.0
  0
LINE
  5
6D5
  8
_1-5_
  6
CONTINUOUS
 62
     7
 10
37230.5716850583921769
 20
12121.8136797181796283
 30
0.0
 11
37230.5716850583921769
 21
13307.1302570367897715
 31
0.0
  0
LINE
  5
6D6
  8
_1-5_
  6
CONTINUOUS
 62
     7
 10
37230.5716850583921769
 20
13307.1302570367897715
 30
0.0
 11
37430.5716850583921769
 21
13307.1302570367897715
 31
0.0
  0
SOLID
  5
6D7
  8
_1-5_
  6
CONTINUOUS
 62
     7
 10
37230.5716850583921769
 20
12121.8136797181796283
 30
0.0
 11
37208.402218794086366
 21
12221.8136797181796283
 31
0.0
 12
37230.5716850583921769
 22
12221.8136797181796283
 32
0.0
 13
37230.5716850583921769
 23
12221.8136797181796283
 33
0.0
  0
LINE
  5
6D8
  8
_1-5_
  6
CONTINUOUS
 62
     7
 10
37230.5716850583921769
 20
12121.8136797181796283
 30
0.0
 11
37208.402218794086366
 21
12221.8136797181796283
 31
0.0
  0
LINE
  5
6D9
  8
_1-5_
  6
CONTINUOUS
 62
     7
 10
37208.402218794086366
 20
12221.8136797181796283
 30
0.0
 11
37230.5716850583921769
 21
12221.8136797181796283
 31
0.0
  0
LINE
  5
6DA
  8
_1-5_
  6
CONTINUOUS
 62
     7
 10
37230.5716850583921769
 20
12221.8136797181796283
 30
0.0
 11
37230.5716850583921769
 21
12121.8136797181796283
 31
0.0
  0
TEXT
  5
6DB
  8
_1-5_
 62
     5
 10
37430.5716850583921769
 20
13207.1302570368006855
 30
0.0
 40
200.0
  1
ニューテッペン
  0
LINE
  5
6DC
  8
_1-5_
  6
CONTINUOUS
 62
     7
 10
45236.4128897013724782
 20
11098.4499504282703128
 30
0.0
 11
45236.4128897013724782
 21
12283.7665277468895511
 31
0.0
  0
LINE
  5
6DD
  8
_1-5_
  6
CONTINUOUS
 62
     7
 10
45236.4128897013724782
 20
12283.7665277468895511
 30
0.0
 11
45436.4128897013579262
 21
12283.7665277468895511
 31
0.0
  0
SOLID
  5
6DE
  8
_1-5_
  6
CONTINUOUS
 62
     7
 10
45236.4128897013724782
 20
11098.4499504282703128
 30
0.0
 11
45214.2434234370884951
 21
11198.4499504282703128
 31
0.0
 12
45236.4128897013724782
 22
11198.4499504282703128
 32
0.0
 13
45236.4128897013724782
 23
11198.4499504282703128
 33
0.0
  0
LINE
  5
6DF
  8
_1-5_
  6
CONTINUOUS
 62
     7
 10
45236.4128897013724782
 20
11098.4499504282703128
 30
0.0
 11
45214.2434234370884951
 21
11198.4499504282703128
 31
0.0
  0
LINE
  5
6E0
  8
_1-5_
  6
CONTINUOUS
 62
     7
 10
45214.2434234370884951
 20
11198.4499504282703128
 30
0.0
 11
45236.4128897013724782
 21
11198.4499504282703128
 31
0.0
  0
LINE
  5
6E1
  8
_1-5_
  6
CONTINUOUS
 62
     7
 10
45236.4128897013724782
 20
11198.4499504282703128
 30
0.0
 11
45236.4128897013724782
 21
11098.4499504282703128
 31
0.0
  0
TEXT
  5
6E2
  8
_1-5_
 62
     5
 10
45436.4128897013579262
 20
12183.7665277468895511
 30
0.0
 40
200.0
  1
ニューテッペン
  0
LINE
  5
6E3
  8
_1-5_
  6
CONTINUOUS
 62
     7
 10
53236.2061084373635822
 20
11670.9090713200694154
 30
0.0
 11
53236.2061084373635822
 21
12856.2256486386904726
 31
0.0
  0
LINE
  5
6E4
  8
_1-5_
  6
CONTINUOUS
 62
     7
 10
53236.2061084373635822
 20
12856.2256486386904726
 30
0.0
 11
53436.2061084373635822
 21
12856.2256486386904726
 31
0.0
  0
SOLID
  5
6E5
  8
_1-5_
  6
CONTINUOUS
 62
     7
 10
53236.2061084373635822
 20
11670.9090713200694154
 30
0.0
 11
53214.0366421730723232
 21
11770.9090713200694154
 31
0.0
 12
53236.2061084373635822
 22
11770.9090713200694154
 32
0.0
 13
53236.2061084373635822
 23
11770.9090713200694154
 33
0.0
  0
LINE
  5
6E6
  8
_1-5_
  6
CONTINUOUS
 62
     7
 10
53236.2061084373635822
 20
11670.9090713200694154
 30
0.0
 11
53214.0366421730723232
 21
11770.9090713200694154
 31
0.0
  0
LINE
  5
6E7
  8
_1-5_
  6
CONTINUOUS
 62
     7
 10
53214.0366421730723232
 20
11770.9090713200694154
 30
0.0
 11
53236.2061084373635822
 21
11770.9090713200694154
 31
0.0
  0
LINE
  5
6E8
  8
_1-5_
  6
CONTINUOUS
 62
     7
 10
53236.2061084373635822
 20
11770.9090713200694154
 30
0.0
 11
53236.2061084373635822
 21
11670.9090713200694154
 31
0.0
  0
TEXT
  5
6E9
  8
_1-5_
 62
     5
 10
53436.2061084373635822
 20
12756.2256486386904726
 30
0.0
 40
200.0
  1
ニューテッペン
  0
SOLID
  5
6EA
  8
_1-5_
  6
CONTINUOUS
 62
     7
 10
33929.4191134173597675
 20
11467.0082425261207391
 30
0.0
 11
33898.618434390577022
 21
11564.6955160367106146
 31
0.0
 12
33879.4191134173597675
 22
11553.610782904570442
 32
0.0
 13
33879.4191134173597675
 23
11553.610782904570442
 33
0.0
  0
LINE
  5
6EB
  8
_1-5_
  6
CONTINUOUS
 62
     7
 10
33929.4191134173597675
 20
11467.0082425261207391
 30
0.0
 11
33898.618434390577022
 21
11564.6955160367106146
 31
0.0
  0
LINE
  5
6EC
  8
_1-5_
  6
CONTINUOUS
 62
     7
 10
33898.618434390577022
 20
11564.6955160367106146
 30
0.0
 11
33879.4191134173597675
 21
11553.610782904570442
 31
0.0
  0
LINE
  5
6ED
  8
_1-5_
  6
CONTINUOUS
 62
     7
 10
33879.4191134173597675
 20
11553.610782904570442
 30
0.0
 11
33929.4191134173597675
 21
11467.0082425261207391
 31
0.0
  0
SOLID
  5
6EE
  8
_1-5_
  6
CONTINUOUS
 62
     7
 10
49889.1080847586927121
 20
10924.6866187933992478
 30
0.0
 11
49858.3074057319026906
 21
11022.3738923039800284
 31
0.0
 12
49839.1080847586927121
 22
11011.2891591718398558
 32
0.0
 13
49839.1080847586927121
 23
11011.2891591718398558
 33
0.0
  0
LINE
  5
6EF
  8
_1-5_
  6
CONTINUOUS
 62
     7
 10
49889.1080847586927121
 20
10924.6866187933992478
 30
0.0
 11
49858.3074057319026906
 21
11022.3738923039800284
 31
0.0
  0
LINE
  5
6F0
  8
_1-5_
  6
CONTINUOUS
 62
     7
 10
49858.3074057319026906
 20
11022.3738923039800284
 30
0.0
 11
49839.1080847586927121
 21
11011.2891591718398558
 31
0.0
  0
LINE
  5
6F1
  8
_1-5_
  6
CONTINUOUS
 62
     7
 10
49839.1080847586927121
 20
11011.2891591718398558
 30
0.0
 11
49889.1080847586927121
 21
10924.6866187933992478
 31
0.0
  0
LINE
  5
6F2
  8
_1-5_
  6
CONTINUOUS
 62
     7
 10
49549.6912202491730568
 20
10582.1631359039292875
 30
0.0
 11
49174.498267757036956
 21
11232.0163922620595258
 31
0.0
  0
LINE
  5
6F3
  8
_1-5_
  6
CONTINUOUS
 62
     7
 10
49174.498267757036956
 20
11232.0163922620595258
 30
0.0
 11
48974.498267757036956
 21
11232.0163922620595258
 31
0.0
  0
SOLID
  5
6F4
  8
_1-5_
  6
CONTINUOUS
 62
     7
 10
49549.6912202491730568
 20
10582.1631359039292875
 30
0.0
 11
49518.8905412223830353
 21
10679.850409414519163
 31
0.0
 12
49499.6912202491730568
 22
10668.7656762823698955
 32
0.0
 13
49499.6912202491730568
 23
10668.7656762823698955
 33
0.0
  0
LINE
  5
6F5
  8
_1-5_
  6
CONTINUOUS
 62
     7
 10
49549.6912202491730568
 20
10582.1631359039292875
 30
0.0
 11
49518.8905412223830353
 21
10679.850409414519163
 31
0.0
  0
LINE
  5
6F6
  8
_1-5_
  6
CONTINUOUS
 62
     7
 10
49518.8905412223830353
 20
10679.850409414519163
 30
0.0
 11
49499.6912202491730568
 21
10668.7656762823698955
 31
0.0
  0
LINE
  5
6F7
  8
_1-5_
  6
CONTINUOUS
 62
     7
 10
49499.6912202491730568
 20
10668.7656762823698955
 30
0.0
 11
49549.6912202491730568
 21
10582.1631359039292875
 31
0.0
  0
TEXT
  5
6F8
  8
_1-5_
 62
     5
 10
48054.4982677570515079
 20
11132.0163922620595258
 30
0.0
 40
200.0
  1
コーキング
  0
TEXT
  5
6F9
  8
_1-5_
 62
     5
 10
48454.2933653994332417
 20
11369.9617076941794949
 30
0.0
 40
200.0
  1
水返し板金
  0
LINE
  5
6FA
  8
_1-5_
  6
CONTINUOUS
 62
     7
 10
49574.2933653994332417
 20
11469.9617076941794949
 30
0.0
 11
49374.2933653994332417
 21
11469.9617076941794949
 31
0.0
  0
LINE
  5
6FB
  8
_1-5_
  6
CONTINUOUS
 62
     7
 10
49889.1080847586927121
 20
10924.6866187933992478
 30
0.0
 11
49574.2933653994332417
 21
11469.9617076941794949
 31
0.0
  0
LINE
  5
6FC
  8
_0-4_
  6
CONTINUOUS
 62
     3
 10
51999.7932187359692762
 20
12652.2931257655600348
 30
0.0
 11
49374.0611369124526391
 21
11602.0002930361697508
 31
0.0
  0
LINE
  5
6FD
  8
_0-4_
  6
CONTINUOUS
 62
     3
 10
49374.0611369124526391
 20
11602.0002930361806648
 30
0.0
 11
49381.4889504395396216
 21
11583.4307592184704845
 31
0.0
  0
LINE
  5
6FE
  8
_0-4_
  6
CONTINUOUS
 62
     3
 10
49567.1842886165613891
 20
11657.7088944892802829
 30
0.0
 11
49381.4889504395396216
 21
11583.4307592184704845
 31
0.0
  0
LINE
  5
6FF
  8
_0-1_
  6
CONTINUOUS
 62
     4
 10
49604.3233562519817497
 20
11672.564521543439696
 30
0.0
 11
51888.3760158297081944
 21
12586.1855853745291824
 31
0.0
  0
LINE
  5
700
  8
_0-4_
  6
CONTINUOUS
 62
     3
 10
51999.7932187359692762
 20
12652.2931257655600348
 30
0.0
 11
54625.5253005594786373
 21
11602.0002930361697508
 31
0.0
  0
LINE
  5
701
  8
_0-4_
  6
CONTINUOUS
 62
     3
 10
54625.5253005594786373
 20
11602.0002930361806648
 30
0.0
 11
54618.0974870323989308
 21
11583.4307592184704845
 31
0.0
  0
LINE
  5
702
  8
_0-4_
  6
CONTINUOUS
 62
     3
 10
54432.4021488553626114
 20
11657.7088944892802829
 30
0.0
 11
54618.0974870323989308
 21
11583.4307592184704845
 31
0.0
  0
LINE
  5
703
  8
_0-1_
  6
CONTINUOUS
 62
     4
 10
54395.2630812199495267
 20
11672.564521543439696
 30
0.0
 11
52111.2104216422085301
 21
12586.1855853745291824
 31
0.0
  0
LINE
  5
704
  8
_0-1_
  6
CONTINUOUS
 62
     4
 10
54395.2630812199495267
 20
11672.564521543439696
 30
0.0
 11
54283.8458783137612045
 21
11394.0215142779507005
 31
0.0
  0
LINE
  5
705
  8
_0-4_
  6
CONTINUOUS
 62
     3
 10
54432.4021488553626114
 20
11657.7088944892802829
 30
0.0
 11
54306.1293188949566684
 21
11342.0268195882999862
 31
0.0
  0
LINE
  5
706
  8
_0-4_
  6
CONTINUOUS
 62
     3
 10
49712.0266523946702364
 20
11349.4546331153796928
 30
0.0
 11
49693.457118576967332
 21
11342.0268195882999862
 31
0.0
  0
LINE
  5
707
  8
_0-4_
  6
CONTINUOUS
 62
     3
 10
49674.8875847592571517
 20
11442.3023022038996714
 30
0.0
 11
49712.0266523946702364
 21
11349.4546331153796928
 31
0.0
  0
LINE
  5
708
  8
_0-1_
  6
CONTINUOUS
 62
     4
 10
49604.3233562519817497
 20
11672.564521543439696
 30
0.0
 11
49715.7405591581773479
 21
11394.0215142779507005
 31
0.0
  0
LINE
  5
709
  8
_0-4_
  6
CONTINUOUS
 62
     3
 10
49567.1842886165613891
 20
11657.7088944892802829
 30
0.0
 11
49693.457118576967332
 21
11342.0268195882999862
 31
0.0
  0
LINE
  5
70A
  8
_0-4_
  6
CONTINUOUS
 62
     3
 10
54287.5597850772683159
 20
11349.4546331153796928
 30
0.0
 11
54306.1293188949566684
 21
11342.0268195882999862
 31
0.0
  0
LINE
  5
70B
  8
_0-4_
  6
CONTINUOUS
 62
     3
 10
54324.6988527126668487
 20
11442.3023022038996714
 30
0.0
 11
54287.5597850772683159
 21
11349.4546331153796928
 31
0.0
  0
LINE
  5
70C
  8
_0-1_
  6
CONTINUOUS
 62
     4
 10
54395.2630812199495267
 20
11672.564521543439696
 30
0.0
 11
54283.8458783137612045
 21
11394.0215142779507005
 31
0.0
  0
LINE
  5
70D
  8
_0-4_
  6
CONTINUOUS
 62
     3
 10
54432.4021488553626114
 20
11657.7088944892802829
 30
0.0
 11
54306.1293188949566684
 21
11342.0268195882999862
 31
0.0
  0
LINE
  5
70E
  8
_0-1_
  6
CONTINUOUS
 62
     4
 10
51888.3760158297081944
 20
12586.1855853745291824
 30
0.0
 11
52000.20678126400162
 21
12307.6425781089692464
 31
0.0
  0
LINE
  5
70F
  8
_0-1_
  6
CONTINUOUS
 62
     4
 10
52111.2104216422085301
 20
12586.1855853745291824
 30
0.0
 11
51999.3796562079296564
 21
12307.6425781089692464
 31
0.0
  0
LINE
  5
710
  8
_0-1_
  6
CONTINUOUS
 62
     4
 10
51888.3760158297081944
 20
12586.1855853745291824
 30
0.0
 11
49715.7405591581773479
 21
11394.0215142779507005
 31
0.0
  0
LINE
  5
711
  8
_0-1_
  6
CONTINUOUS
 62
     4
 10
52111.2104216422085301
 20
12586.1855853745291824
 30
0.0
 11
54283.8458783137612045
 21
11394.0215142779507005
 31
0.0
  0
LINE
  5
712
  8
_0-1_
  6
CONTINUOUS
 62
     4
 10
49957.1444987883514841
 20
11490.5830901300105324
 30
0.0
 11
49715.7405591581773479
 21
11394.0215142779507005
 31
0.0
  0
LINE
  5
713
  8
_0-1_
  6
CONTINUOUS
 62
     4
 10
54042.4419386835797923
 20
11490.5830901300105324
 30
0.0
 11
54283.8458783137612045
 21
11394.0215142779507005
 31
0.0
  0
LINE
  5
714
  8
_0-4_
  6
CONTINUOUS
 62
     3
 10
43999.999999999992724
 20
12079.8340048737700272
 30
0.0
 11
41374.267918176468811
 21
11029.5411721443797433
 31
0.0
  0
LINE
  5
715
  8
_0-4_
  6
CONTINUOUS
 62
     3
 10
41374.267918176468811
 20
11029.5411721443906572
 30
0.0
 11
41381.6957317035630695
 21
11010.9716383266804769
 31
0.0
  0
LINE
  5
716
  8
_0-4_
  6
CONTINUOUS
 62
     3
 10
41567.3910698805993889
 20
11085.2497735974993702
 30
0.0
 11
41381.6957317035630695
 21
11010.9716383266804769
 31
0.0
  0
LINE
  5
717
  8
_0-1_
  6
CONTINUOUS
 62
     4
 10
41604.5301375160124735
 20
11100.1054006516496884
 30
0.0
 11
43888.5827970937316422
 21
12013.7264644827300799
 31
0.0
  0
LINE
  5
718
  8
_0-1_
  6
CONTINUOUS
 62
     4
 10
41604.5301375160124735
 20
11100.1054006516496884
 30
0.0
 11
41715.9473404221935198
 21
10821.5623933861606929
 31
0.0
  0
LINE
  5
719
  8
_0-1_
  6
CONTINUOUS
 62
     4
 10
41957.351280052367656
 20
10918.1239692382205249
 30
0.0
 11
41715.9473404221935198
 21
10821.5623933861606929
 31
0.0
  0
LINE
  5
71A
  8
_0-1_
  6
CONTINUOUS
 62
     4
 10
43888.5827970937316422
 20
12013.7264644827300799
 30
0.0
 11
41715.9473404221935198
 21
10821.5623933861606929
 31
0.0
  0
LINE
  5
71B
  8
_0-4_
  6
CONTINUOUS
 62
     3
 10
41712.2334336586791323
 20
10776.9955122235805902
 30
0.0
 11
41693.6638998409907799
 21
10769.5676986965008837
 31
0.0
  0
LINE
  5
71C
  8
_0-4_
  6
CONTINUOUS
 62
     3
 10
41675.0943660232878756
 20
10869.8431813121096638
 30
0.0
 11
41712.2334336586791323
 21
10776.9955122235805902
 31
0.0
  0
LINE
  5
71D
  8
_0-4_
  6
CONTINUOUS
 62
     3
 10
41567.3910698805993889
 20
11085.2497735974993702
 30
0.0
 11
41693.6638998409907799
 21
10769.5676986965008837
 31
0.0
  0
LINE
  5
71E
  8
_0-4_
  6
CONTINUOUS
 62
     3
 10
43999.999999999992724
 20
12079.8340048737700272
 30
0.0
 11
46625.7320818235093611
 21
11029.5411721443797433
 31
0.0
  0
LINE
  5
71F
  8
_0-4_
  6
CONTINUOUS
 62
     3
 10
46625.7320818235093611
 20
11029.5411721443906572
 30
0.0
 11
46618.3042682964078267
 21
11010.9716383266804769
 31
0.0
  0
LINE
  5
720
  8
_0-4_
  6
CONTINUOUS
 62
     3
 10
46432.6089301193715073
 20
11085.2497735974993702
 30
0.0
 11
46618.3042682964078267
 21
11010.9716383266804769
 31
0.0
  0
LINE
  5
721
  8
_0-1_
  6
CONTINUOUS
 62
     4
 10
46395.4698624839584227
 20
11100.1054006516496884
 30
0.0
 11
44111.417202906231978
 21
12013.7264644827300799
 31
0.0
  0
LINE
  5
722
  8
_0-1_
  6
CONTINUOUS
 62
     4
 10
46395.4698624839584227
 20
11100.1054006516496884
 30
0.0
 11
46284.0526595777701004
 21
10821.5623933861606929
 31
0.0
  0
LINE
  5
723
  8
_0-1_
  6
CONTINUOUS
 62
     4
 10
46042.6487199475886882
 20
10918.1239692382205249
 30
0.0
 11
46284.0526595777701004
 21
10821.5623933861606929
 31
0.0
  0
LINE
  5
724
  8
_0-1_
  6
CONTINUOUS
 62
     4
 10
44111.417202906231978
 20
12013.7264644827300799
 30
0.0
 11
46284.0526595777701004
 21
10821.5623933861606929
 31
0.0
  0
LINE
  5
725
  8
_0-4_
  6
CONTINUOUS
 62
     3
 10
46287.7665663412699359
 20
10776.9955122235805902
 30
0.0
 11
46306.3361001589801162
 21
10769.5676986965008837
 31
0.0
  0
LINE
  5
726
  8
_0-4_
  6
CONTINUOUS
 62
     3
 10
46324.9056339766830206
 20
10869.8431813121096638
 30
0.0
 11
46287.7665663412699359
 21
10776.9955122235805902
 31
0.0
  0
LINE
  5
727
  8
_0-4_
  6
CONTINUOUS
 62
     3
 10
46432.6089301193715073
 20
11085.2497735974993702
 30
0.0
 11
46306.3361001589801162
 21
10769.5676986965008837
 31
0.0
  0
LINE
  5
728
  8
_0-1_
  6
CONTINUOUS
 62
     4
 10
43888.5827970937316422
 20
12013.7264644827300799
 30
0.0
 11
44000.0
 21
11735.1834572171792388
 31
0.0
  0
LINE
  5
729
  8
_0-1_
  6
CONTINUOUS
 62
     4
 10
44111.417202906231978
 20
12013.7264644827300799
 30
0.0
 11
44000.0
 21
11735.1834572171792388
 31
0.0
  0
LINE
  5
72A
  8
_0-4_
  6
CONTINUOUS
 62
     3
 10
35999.999999999992724
 20
13178.4076255292202404
 30
0.0
 11
33374.267918176468811
 21
12128.1147927998208615
 31
0.0
  0
LINE
  5
72B
  8
_0-1_
  6
CONTINUOUS
 62
     4
 10
33604.5301375160124735
 20
12198.6790213070999016
 30
0.0
 11
35888.5827970937389182
 21
13112.3000851381802931
 31
0.0
  0
LINE
  5
72C
  8
_0-1_
  6
CONTINUOUS
 62
     4
 10
35888.5827970937389182
 20
13112.3000851381802931
 30
0.0
 11
33715.9473404222007957
 21
11920.1360140416109061
 31
0.0
  0
LINE
  5
72D
  8
_0-1_
  6
CONTINUOUS
 62
     4
 10
35888.5827970937389182
 20
13112.3000851381802931
 30
0.0
 11
36000.0
 21
12833.7570778726203571
 31
0.0
  0
LINE
  5
72E
  8
_0-4_
  6
CONTINUOUS
 62
     3
 10
35999.999999999992724
 20
13178.4076255292202404
 30
0.0
 11
38625.7320818235093611
 21
12128.1147927998208615
 31
0.0
  0
LINE
  5
72F
  8
_0-1_
  6
CONTINUOUS
 62
     4
 10
38395.4698624839729746
 20
12198.6790213070999016
 30
0.0
 11
36111.417202906231978
 21
13112.3000851381802931
 31
0.0
  0
LINE
  5
730
  8
_0-1_
  6
CONTINUOUS
 62
     4
 10
36111.417202906231978
 20
13112.3000851381802931
 30
0.0
 11
38284.0526595777773764
 21
11920.1360140416109061
 31
0.0
  0
LINE
  5
731
  8
_0-1_
  6
CONTINUOUS
 62
     4
 10
36111.417202906231978
 20
13112.3000851381802931
 30
0.0
 11
35999.9999999999636202
 21
12833.7570778726203571
 31
0.0
  0
LINE
  5
732
  8
_0-4_
  6
CONTINUOUS
 62
     3
 10
33374.267918176468811
 20
12128.1147927998299565
 30
0.0
 11
33381.6957317035703454
 21
12109.5452589821197762
 31
0.0
  0
LINE
  5
733
  8
_0-4_
  6
CONTINUOUS
 62
     3
 10
33567.3910698805993889
 20
12183.8233942529404885
 30
0.0
 11
33381.6957317035703454
 21
12109.5452589821197762
 31
0.0
  0
LINE
  5
734
  8
_0-1_
  6
CONTINUOUS
 62
     4
 10
33604.5301375160124735
 20
12198.6790213070999016
 30
0.0
 11
33715.9473404222007957
 21
11920.1360140416109061
 31
0.0
  0
LINE
  5
735
  8
_0-4_
  6
CONTINUOUS
 62
     3
 10
33712.2334336587009602
 20
11875.5691328790308035
 30
0.0
 11
33693.6638998409907799
 21
11868.1413193519492779
 31
0.0
  0
LINE
  5
736
  8
_0-4_
  6
CONTINUOUS
 62
     3
 10
33675.0943660232878756
 20
11968.4168019675507821
 30
0.0
 11
33712.2334336587009602
 21
11875.5691328790308035
 31
0.0
  0
LINE
  5
737
  8
_0-4_
  6
CONTINUOUS
 62
     3
 10
33567.3910698805993889
 20
12183.8233942529404885
 30
0.0
 11
33693.6638998409907799
 21
11868.1413193519492779
 31
0.0
  0
LINE
  5
738
  8
_0-4_
  6
CONTINUOUS
 62
     3
 10
38625.7320818235093611
 20
12128.1147927998299565
 30
0.0
 11
38618.3042682964223786
 21
12109.5452589821197762
 31
0.0
  0
LINE
  5
739
  8
_0-4_
  6
CONTINUOUS
 62
     3
 10
38432.6089301193715073
 20
12183.8233942529404885
 30
0.0
 11
38618.3042682964223786
 21
12109.5452589821197762
 31
0.0
  0
LINE
  5
73A
  8
_0-1_
  6
CONTINUOUS
 62
     4
 10
38395.4698624839729746
 20
12198.6790213070999016
 30
0.0
 11
38284.0526595777773764
 21
11920.1360140416109061
 31
0.0
  0
LINE
  5
73B
  8
_0-4_
  6
CONTINUOUS
 62
     3
 10
38287.7665663412772119
 20
11875.5691328790308035
 30
0.0
 11
38306.3361001589801162
 21
11868.1413193519492779
 31
0.0
  0
LINE
  5
73C
  8
_0-4_
  6
CONTINUOUS
 62
     3
 10
38324.9056339766830206
 20
11968.4168019675507821
 30
0.0
 11
38287.7665663412772119
 21
11875.5691328790308035
 31
0.0
  0
LINE
  5
73D
  8
_0-4_
  6
CONTINUOUS
 62
     3
 10
38432.6089301193715073
 20
12183.8233942529404885
 30
0.0
 11
38306.3361001589801162
 21
11868.1413193519492779
 31
0.0
  0
LINE
  5
73E
  8
_0-1_
  6
CONTINUOUS
 62
     4
 10
33957.3512800523822079
 20
12016.6975898936598242
 30
0.0
 11
33715.9473404222007957
 21
11920.1360140416109061
 31
0.0
  0
LINE
  5
73F
  8
_0-1_
  6
CONTINUOUS
 62
     4
 10
38042.6487199476032401
 20
12016.6975898936598242
 30
0.0
 11
38284.0526595777773764
 21
11920.1360140416109061
 31
0.0
  0
TEXT
  5
740
  8
_1-5_
 62
     5
 10
32642.4422244406086975
 20
11656.2206979236398183
 30
0.0
 40
200.0
  1
水返し板金
  0
LINE
  5
741
  8
_1-5_
  6
CONTINUOUS
 62
     7
 10
33762.4422244406232494
 20
11756.2206979236398183
 30
0.0
 11
33562.4422244406232494
 21
11756.2206979236398183
 31
0.0
  0
LINE
  5
742
  8
_1-5_
  6
CONTINUOUS
 62
     7
 10
33929.4191134173597675
 20
11467.0082425261207391
 30
0.0
 11
33762.4422244406232494
 21
11756.2206979236398183
 31
0.0
  0
TEXT
  5
743
  8
_0-1_
 62
     4
 10
36557.3602414003471495
 20
14450.0
 30
0.0
 40
200.0
  1
笠木：大
  0
TEXT
  5
744
  8
_0-1_
 62
     4
 10
44557.3602414003471495
 20
14450.0
 30
0.0
 40
200.0
  1
笠木：大
  0
TEXT
  5
745
  8
_0-1_
 62
     4
 10
52557.3602414003471495
 20
14450.0
 30
0.0
 40
200.0
  1
笠木：大
  0
LINE
  5
746
  8
_0-4_
  6
CONTINUOUS
 62
     3
 10
32000.0
 20
14700.0
 30
0.0
 11
32000.0
 21
4700.0
 31
0.0
  0
LINE
  5
747
  8
_0-4_
  6
CONTINUOUS
 62
     3
 10
32000.0
 20
4700.0
 30
0.0
 11
24000.0
 21
4700.0
 31
0.0
  0
LINE
  5
748
  8
_0-4_
  6
CONTINUOUS
 62
     3
 10
32000.0
 20
14400.0
 30
0.0
 11
24000.0
 21
14400.0
 31
0.0
  0
LINE
  5
749
  8
_1-A_
  6
CONTINUOUS
 62
     7
 10
3700.0
 20
20181.23181424734139
 30
0.0
 11
4299.9999999999918145
 21
20181.23181424734139
 31
0.0
  0
TEXT
  5
74A
  8
_1-A_
 62
     5
 10
3719.9999999999959073
 20
20181.23181424734139
 30
0.0
 40
200.0
  1
30程度
  0
LINE
  5
74B
  8
_1-A_
  6
CONTINUOUS
 62
     7
 10
11700.0000000000090949
 20
20181.23181424734139
 30
0.0
 11
12300.0
 21
20181.23181424734139
 31
0.0
  0
TEXT
  5
74C
  8
_1-A_
 62
     5
 10
11720.0
 20
20181.23181424734139
 30
0.0
 40
200.0
  1
30程度
  0
LINE
  5
74D
  8
_1-A_
  6
CONTINUOUS
 62
     7
 10
35699.9999999999781721
 20
20375.0977473042003112
 30
0.0
 11
36299.999999999992724
 21
20375.0977473042003112
 31
0.0
  0
TEXT
  5
74E
  8
_1-A_
 62
     5
 10
35720.0
 20
20375.0977473042003112
 30
0.0
 40
200.0
  1
30程度
  0
LINE
  5
74F
  8
_1-A_
  6
CONTINUOUS
 62
     7
 10
43699.999999999992724
 20
20375.0977473042003112
 30
0.0
 11
44299.999999999992724
 21
20375.0977473042003112
 31
0.0
  0
TEXT
  5
750
  8
_1-A_
 62
     5
 10
43719.999999999992724
 20
20375.0977473042003112
 30
0.0
 40
200.0
  1
30程度
  0
LINE
  5
751
  8
_1-A_
  6
CONTINUOUS
 62
     7
 10
51700.0
 20
20283.591594466688548
 30
0.0
 11
52299.9999999999708962
 21
20283.591594466688548
 31
0.0
  0
TEXT
  5
752
  8
_1-A_
 62
     5
 10
51719.999999999992724
 20
20283.591594466688548
 30
0.0
 40
200.0
  1
30程度
  0
LINE
  5
753
  8
_1-A_
  6
CONTINUOUS
 62
     7
 10
22030.6483073993586004
 20
20181.231814247348666
 30
0.0
 11
22630.6483073993695143
 21
20181.231814247348666
 31
0.0
  0
LINE
  5
754
  8
_1-A_
  6
CONTINUOUS
 62
     7
 10
3700.0
 20
10181.231814247339571
 30
0.0
 11
4299.9999999999918145
 21
10181.231814247339571
 31
0.0
  0
TEXT
  5
755
  8
_1-A_
 62
     5
 10
3719.9999999999931788
 20
10181.231814247339571
 30
0.0
 40
200.0
  1
30程度
  0
LINE
  5
756
  8
_1-A_
  6
CONTINUOUS
 62
     7
 10
11700.0000000000090949
 20
10181.231814247339571
 30
0.0
 11
12300.0
 21
10181.231814247339571
 31
0.0
  0
TEXT
  5
757
  8
_1-A_
 62
     5
 10
11720.0
 20
10181.231814247339571
 30
0.0
 40
200.0
  1
30程度
  0
LINE
  5
758
  8
_1-A_
  6
CONTINUOUS
 62
     7
 10
35700.0
 20
10375.0977473042003112
 30
0.0
 11
36299.999999999992724
 21
10375.0977473042003112
 31
0.0
  0
TEXT
  5
759
  8
_1-A_
 62
     5
 10
35720.0
 20
10375.0977473042003112
 30
0.0
 40
200.0
  1
30程度
  0
LINE
  5
75A
  8
_1-A_
  6
CONTINUOUS
 62
     7
 10
43700.0
 20
10375.0977473041893973
 30
0.0
 11
44299.999999999992724
 21
10375.0977473041893973
 31
0.0
  0
TEXT
  5
75B
  8
_1-A_
 62
     5
 10
43720.0
 20
10375.0977473041893973
 30
0.0
 40
200.0
  1
30程度
  0
LINE
  5
75C
  8
_1-A_
  6
CONTINUOUS
 62
     7
 10
51700.0
 20
10283.591594466690367
 30
0.0
 11
52299.9999999999708962
 21
10283.591594466690367
 31
0.0
  0
TEXT
  5
75D
  8
_1-A_
 62
     5
 10
51720.0
 20
10283.591594466690367
 30
0.0
 40
200.0
  1
30程度
  0
LINE
  5
766
  8
_0-1_
  6
CONTINUOUS
 62
     4
 10
34026.315853745698405
 20
21161.1163910008399398
 30
0.0
 11
35679.0043635214533424
 21
21068.2687219123217801
 31
0.0
  0
LINE
  5
768
  8
_0-1_
  6
CONTINUOUS
 62
     4
 10
37973.6841462542870431
 20
21161.1163910008399398
 30
0.0
 11
36320.9956364785321057
 21
21068.2687219123217801
 31
0.0
  0
LINE
  5
769
  8
_0-1_
  6
CONTINUOUS
 62
     4
 10
34026.315853745698405
 20
11161.1163910008399398
 30
0.0
 11
35679.0043635214533424
 21
11068.2687219123108662
 31
0.0
  0
LINE
  5
76A
  8
_0-1_
  6
CONTINUOUS
 62
     4
 10
36320.9956364785321057
 20
11068.2687219123108662
 30
0.0
 11
37973.6841462542870431
 21
11161.1163910008399398
 31
0.0
  0
ENDSEC
  0
EOF
